  0
SECTION
  2
HEADER
  9
$ACADVER
  1
AC1015
  9
$ACADMAINTVER
 70
    20
  9
$DWGCODEPAGE
  3
ANSI_932
  9
$INSBASE
 10
0.0
 20
0.0
 30
0.0
  9
$EXTMIN
 10
-1350.082391174606
 20
-2014.883294593333
 30
-0.0015258207003583
  9
$EXTMAX
 10
1350.082403747461
 20
1999.567671355127
 30
0.0000000349246037
  9
$LIMMIN
 10
0.0
 20
0.0
  9
$LIMMAX
 10
0.0
 20
0.0
  9
$ORTHOMODE
 70
     0
  9
$REGENMODE
 70
     1
  9
$FILLMODE
 70
     1
  9
$QTEXTMODE
 70
     0
  9
$MIRRTEXT
 70
     1
  9
$LTSCALE
 40
76.2
  9
$ATTMODE
 70
     1
  9
$TEXTSIZE
 40
0.0
  9
$TRACEWID
 40
1.0
  9
$TEXTSTYLE
  7
STANDARD
  9
$CLAYER
  8
DATA
  9
$CELTYPE
  6
ByLayer
  9
$CECOLOR
 62
   256
  9
$CELTSCALE
 40
1.0
  9
$DISPSILH
 70
     0
  9
$DIMSCALE
 40
1.0
  9
$DIMASZ
 40
0.18
  9
$DIMEXO
 40
0.0625
  9
$DIMDLI
 40
0.38
  9
$DIMRND
 40
0.0
  9
$DIMDLE
 40
0.0
  9
$DIMEXE
 40
0.18
  9
$DIMTP
 40
0.0
  9
$DIMTM
 40
0.0
  9
$DIMTXT
 40
0.18
  9
$DIMCEN
 40
0.09
  9
$DIMTSZ
 40
0.0
  9
$DIMTOL
 70
     0
  9
$DIMLIM
 70
     0
  9
$DIMTIH
 70
     1
  9
$DIMTOH
 70
     1
  9
$DIMSE1
 70
     0
  9
$DIMSE2
 70
     0
  9
$DIMTAD
 70
     0
  9
$DIMZIN
 70
     0
  9
$DIMBLK
  1

  9
$DIMASO
 70
     1
  9
$DIMSHO
 70
     1
  9
$DIMPOST
  1

  9
$DIMAPOST
  1

  9
$DIMALT
 70
     0
  9
$DIMALTD
 70
     2
  9
$DIMALTF
 40
25.4
  9
$DIMLFAC
 40
1.0
  9
$DIMTOFL
 70
     0
  9
$DIMTVP
 40
0.0
  9
$DIMTIX
 70
     0
  9
$DIMSOXD
 70
     0
  9
$DIMSAH
 70
     0
  9
$DIMBLK1
  1

  9
$DIMBLK2
  1

  9
$DIMSTYLE
  2
STANDARD
  9
$DIMCLRD
 70
     0
  9
$DIMCLRE
 70
     0
  9
$DIMCLRT
 70
     0
  9
$DIMTFAC
 40
1.0
  9
$DIMGAP
 40
0.09
  9
$DIMJUST
 70
     0
  9
$DIMSD1
 70
     0
  9
$DIMSD2
 70
     0
  9
$DIMTOLJ
 70
     1
  9
$DIMTZIN
 70
     0
  9
$DIMALTZ
 70
     0
  9
$DIMALTTZ
 70
     0
  9
$DIMUPT
 70
     0
  9
$DIMDEC
 70
     4
  9
$DIMTDEC
 70
     4
  9
$DIMALTU
 70
     2
  9
$DIMALTTD
 70
     2
  9
$DIMTXSTY
  7
STANDARD
  9
$DIMAUNIT
 70
     0
  9
$DIMADEC
 70
     0
  9
$DIMALTRND
 40
0.0
  9
$DIMAZIN
 70
     0
  9
$DIMDSEP
 70
    46
  9
$DIMATFIT
 70
     3
  9
$DIMFRAC
 70
     0
  9
$DIMLDRBLK
  1

  9
$DIMLUNIT
 70
     2
  9
$DIMLWD
 70
    -2
  9
$DIMLWE
 70
    -2
  9
$DIMTMOVE
 70
     0
  9
$LUNITS
 70
     2
  9
$LUPREC
 70
     4
  9
$SKETCHINC
 40
0.1
  9
$FILLETRAD
 40
0.0
  9
$AUNITS
 70
     0
  9
$AUPREC
 70
     0
  9
$MENU
  1
acad
  9
$ELEVATION
 40
0.0
  9
$PELEVATION
 40
0.0
  9
$THICKNESS
 40
0.0
  9
$LIMCHECK
 70
     0
  9
$CHAMFERA
 40
0.0
  9
$CHAMFERB
 40
0.0
  9
$CHAMFERC
 40
0.0
  9
$CHAMFERD
 40
0.0
  9
$SKPOLY
 70
     0
  9
$TDCREATE
 40
2457812.596793981
  9
$TDUCREATE
 40
2457812.221793981
  9
$TDUPDATE
 40
2457812.671898148
  9
$TDUUPDATE
 40
2457812.296898148
  9
$TDINDWG
 40
0.0002893519
  9
$TDUSRTIMER
 40
0.0002893519
  9
$USRTIMER
 70
     1
  9
$ANGBASE
 50
0.0
  9
$ANGDIR
 70
     0
  9
$PDMODE
 70
     1
  9
$PDSIZE
 40
-2.0
  9
$PLINEWID
 40
0.0
  9
$SPLFRAME
 70
     0
  9
$SPLINETYPE
 70
     6
  9
$SPLINESEGS
 70
     8
  9
$HANDSEED
  5
572
  9
$SURFTAB1
 70
     6
  9
$SURFTAB2
 70
     6
  9
$SURFTYPE
 70
     6
  9
$SURFU
 70
     6
  9
$SURFV
 70
     6
  9
$UCSBASE
  2

  9
$UCSNAME
  2

  9
$UCSORG
 10
0.0
 20
0.0
 30
0.0
  9
$UCSXDIR
 10
1.0
 20
0.0
 30
0.0
  9
$UCSYDIR
 10
0.0
 20
1.0
 30
0.0
  9
$UCSORTHOREF
  2

  9
$UCSORTHOVIEW
 70
     0
  9
$UCSORGTOP
 10
0.0
 20
0.0
 30
0.0
  9
$UCSORGBOTTOM
 10
0.0
 20
0.0
 30
0.0
  9
$UCSORGLEFT
 10
0.0
 20
0.0
 30
0.0
  9
$UCSORGRIGHT
 10
0.0
 20
0.0
 30
0.0
  9
$UCSORGFRONT
 10
0.0
 20
0.0
 30
0.0
  9
$UCSORGBACK
 10
0.0
 20
0.0
 30
0.0
  9
$PUCSBASE
  2

  9
$PUCSNAME
  2

  9
$PUCSORG
 10
0.0
 20
0.0
 30
0.0
  9
$PUCSXDIR
 10
1.0
 20
0.0
 30
0.0
  9
$PUCSYDIR
 10
0.0
 20
1.0
 30
0.0
  9
$PUCSORTHOREF
  2

  9
$PUCSORTHOVIEW
 70
     0
  9
$PUCSORGTOP
 10
0.0
 20
0.0
 30
0.0
  9
$PUCSORGBOTTOM
 10
0.0
 20
0.0
 30
0.0
  9
$PUCSORGLEFT
 10
0.0
 20
0.0
 30
0.0
  9
$PUCSORGRIGHT
 10
0.0
 20
0.0
 30
0.0
  9
$PUCSORGFRONT
 10
0.0
 20
0.0
 30
0.0
  9
$PUCSORGBACK
 10
0.0
 20
0.0
 30
0.0
  9
$USERI1
 70
     0
  9
$USERI2
 70
     0
  9
$USERI3
 70
     0
  9
$USERI4
 70
     0
  9
$USERI5
 70
     0
  9
$USERR1
 40
0.0
  9
$USERR2
 40
0.0
  9
$USERR3
 40
0.0
  9
$USERR4
 40
0.0
  9
$USERR5
 40
0.0
  9
$WORLDVIEW
 70
     1
  9
$SHADEDGE
 70
     3
  9
$SHADEDIF
 70
    70
  9
$TILEMODE
 70
     1
  9
$MAXACTVP
 70
    64
  9
$PINSBASE
 10
0.0
 20
0.0
 30
0.0
  9
$PLIMCHECK
 70
     0
  9
$PEXTMIN
 10
1.000000000000000E+20
 20
1.000000000000000E+20
 30
1.000000000000000E+20
  9
$PEXTMAX
 10
-1.000000000000000E+20
 20
-1.000000000000000E+20
 30
-1.000000000000000E+20
  9
$PLIMMIN
 10
0.0
 20
0.0
  9
$PLIMMAX
 10
12.0
 20
9.0
  9
$UNITMODE
 70
     0
  9
$VISRETAIN
 70
     0
  9
$PLINEGEN
 70
     1
  9
$PSLTSCALE
 70
     0
  9
$TREEDEPTH
 70
  3020
  9
$CMLSTYLE
  2
Standard
  9
$CMLJUST
 70
     0
  9
$CMLSCALE
 40
1.0
  9
$PROXYGRAPHICS
 70
     1
  9
$MEASUREMENT
 70
     0
  9
$CELWEIGHT
370
    -1
  9
$ENDCAPS
280
     0
  9
$JOINSTYLE
280
     0
  9
$LWDISPLAY
290
     0
  9
$INSUNITS
 70
     0
  9
$HYPERLINKBASE
  1

  9
$STYLESHEET
  1

  9
$XEDIT
290
     1
  9
$CEPSNTYPE
380
     0
  9
$PSTYLEMODE
290
     1
  9
$FINGERPRINTGUID
  2
{D679D020-009C-3544-A908-E386041EA65E}
  9
$VERSIONGUID
  2
{D8B35B53-7597-EB4F-B6A4-3E6C4A17FCEA}
  9
$EXTNAMES
290
     1
  9
$PSVPSCALE
 40
0.0
  9
$OLESTARTUP
290
     0
  0
ENDSEC
  0
SECTION
  2
CLASSES
  0
CLASS
  1
ACDBDICTIONARYWDFLT
  2
AcDbDictionaryWithDefault
  3
ObjectDBX Classes
 90
        0
280
     0
281
     0
  0
CLASS
  1
MATERIAL
  2
AcDbMaterial
  3
ObjectDBX Classes
 90
     1153
280
     0
281
     0
  0
CLASS
  1
VISUALSTYLE
  2
AcDbVisualStyle
  3
ObjectDBX Classes
 90
     4095
280
     0
281
     0
  0
CLASS
  1
SCALE
  2
AcDbScale
  3
ObjectDBX Classes
 90
     1153
280
     0
281
     0
  0
CLASS
  1
TABLESTYLE
  2
AcDbTableStyle
  3
ObjectDBX Classes
 90
     4095
280
     0
281
     0
  0
CLASS
  1
MLEADERSTYLE
  2
AcDbMLeaderStyle
  3
ACDB_MLEADERSTYLE_CLASS
 90
     4095
280
     0
281
     0
  0
CLASS
  1
ACDBSECTIONVIEWSTYLE
  2
AcDbSectionViewStyle
  3
ObjectDBX Classes
 90
     1025
280
     0
281
     0
  0
CLASS
  1
ACDBDETAILVIEWSTYLE
  2
AcDbDetailViewStyle
  3
ObjectDBX Classes
 90
     1025
280
     0
281
     0
  0
CLASS
  1
DICTIONARYVAR
  2
AcDbDictionaryVar
  3
ObjectDBX Classes
 90
        0
280
     0
281
     0
  0
CLASS
  1
CELLSTYLEMAP
  2
AcDbCellStyleMap
  3
ObjectDBX Classes
 90
     1152
280
     0
281
     0
  0
CLASS
  1
ACDBPLACEHOLDER
  2
AcDbPlaceHolder
  3
ObjectDBX Classes
 90
        0
280
     0
281
     0
  0
CLASS
  1
LAYOUT
  2
AcDbLayout
  3
ObjectDBX Classes
 90
        0
280
     0
281
     0
  0
ENDSEC
  0
SECTION
  2
TABLES
  0
TABLE
  2
VPORT
  5
49B
330
0
100
AcDbSymbolTable
 70
     1
  0
VPORT
  5
507
330
49B
100
AcDbSymbolTableRecord
100
AcDbViewportTableRecord
  2
*ACTIVE
 70
     0
 10
0.0
 20
0.0
 11
1.0
 21
1.0
 12
0.0000062864282881
 22
-7.657811619102631
 13
0.0
 23
0.0
 14
1.0
 24
1.0
 15
0.0
 25
0.0
 16
0.0
 26
0.0
 36
1.0
 17
0.0
 27
0.0
 37
0.0
 40
4036.794848875817
 41
2.358402971216341
 42
50.0
 43
0.0
 44
0.0
 50
0.0
 51
0.0
 71
     0
 72
  2000
 73
     1
 74
     1
 75
     0
 76
     0
 77
     0
 78
     0
281
     0
 65
     1
110
0.0
120
0.0
130
0.0
111
1.0
121
0.0
131
0.0
112
0.0
122
1.0
132
0.0
 79
     0
146
0.0
1001
ACAD_NAV_VCDISPLAY
1070
     3
  0
ENDTAB
  0
TABLE
  2
LTYPE
  5
498
330
0
100
AcDbSymbolTable
 70
    12
  0
LTYPE
  5
4ED
330
498
100
AcDbSymbolTableRecord
100
AcDbLinetypeTableRecord
  2
ByBlock
 70
     0
  3

 72
    65
 73
     0
 40
0.0
  0
LTYPE
  5
4EE
330
498
100
AcDbSymbolTableRecord
100
AcDbLinetypeTableRecord
  2
ByLayer
 70
     0
  3

 72
    65
 73
     0
 40
0.0
  0
LTYPE
  5
4EF
330
498
100
AcDbSymbolTableRecord
100
AcDbLinetypeTableRecord
  2
CONTINUOUS
 70
     0
  3
Solid line
 72
    65
 73
     0
 40
0.0
  0
LTYPE
  5
50D
330
498
100
AcDbSymbolTableRecord
100
AcDbLinetypeTableRecord
  2
STYLE_06
 70
     0
  3

 72
    65
 73
     4
 40
1.041641235351562
 49
0.625
 74
     0
 49
-0.208282470703125
 74
     0
 49
0.069427490234375
 74
     0
 49
-0.1389312744140625
 74
     0
  0
ENDTAB
  0
TABLE
  2
LAYER
  5
495
330
0
100
AcDbSymbolTable
 70
     5
  0
LAYER
  5
4E7
102
{ACAD_XDICTIONARY
360
51C
102
}
330
495
100
AcDbSymbolTableRecord
100
AcDbLayerTableRecord
  2
0
 70
     0
 62
     7
  6
CONTINUOUS
370
    -3
390
4A2
  0
LAYER
  5
506
102
{ACAD_XDICTIONARY
360
51E
102
}
330
495
100
AcDbSymbolTableRecord
100
AcDbLayerTableRecord
  2
DATA
 70
     0
 62
     7
  6
CONTINUOUS
370
    -3
390
4A2
  0
LAYER
  5
513
102
{ACAD_XDICTIONARY
360
520
102
}
330
495
100
AcDbSymbolTableRecord
100
AcDbLayerTableRecord
  2
HIBINO-BASE
 70
     0
 62
     7
  6
CONTINUOUS
370
    -3
390
4A2
  0
LAYER
  5
514
102
{ACAD_XDICTIONARY
360
522
102
}
330
495
100
AcDbSymbolTableRecord
100
AcDbLayerTableRecord
  2
SPEC
 70
     0
 62
     7
  6
CONTINUOUS
370
    -3
390
4A2
  0
LAYER
  5
515
102
{ACAD_XDICTIONARY
360
524
102
}
330
495
100
AcDbSymbolTableRecord
100
AcDbLayerTableRecord
  2
DIMNSIONS
 70
     0
 62
     7
  6
CONTINUOUS
370
    -3
390
4A2
  0
ENDTAB
  0
TABLE
  2
STYLE
  5
496
330
0
100
AcDbSymbolTable
 70
     3
  0
STYLE
  5
4E8
330
496
100
AcDbSymbolTableRecord
100
AcDbTextStyleTableRecord
  2
STANDARD
 70
     0
 40
0.0
 41
1.0
 50
0.0
 71
     0
 42
0.0
  3
txt
  4
BIGFONT.SHX
  0
ENDTAB
  0
TABLE
  2
VIEW
  5
499
330
0
100
AcDbSymbolTable
 70
     0
  0
ENDTAB
  0
TABLE
  2
UCS
  5
49A
330
0
100
AcDbSymbolTable
 70
     0
  0
ENDTAB
  0
TABLE
  2
APPID
  5
49C
330
0
100
AcDbSymbolTable
 70
     4
  0
APPID
  5
4E9
330
49C
100
AcDbSymbolTableRecord
100
AcDbRegAppTableRecord
  2
ACAD
 70
     0
  0
APPID
  5
4F0
330
49C
100
AcDbSymbolTableRecord
100
AcDbRegAppTableRecord
  2
AcadAnnotative
 70
     0
  0
APPID
  5
530
330
49C
100
AcDbSymbolTableRecord
100
AcDbRegAppTableRecord
  2
ACAD_NAV_VCDISPLAY
 70
     0
  0
APPID
  5
569
330
49C
100
AcDbSymbolTableRecord
100
AcDbRegAppTableRecord
  2
ACAD_MLEADERVER
 70
     0
  0
ENDTAB
  0
TABLE
  2
DIMSTYLE
  5
49D
330
0
100
AcDbSymbolTable
 70
     2
100
AcDbDimStyleTable
 71
     0
  0
DIMSTYLE
105
4EA
330
49D
100
AcDbSymbolTableRecord
100
AcDbDimStyleTableRecord
  2
STANDARD
 70
     0
279
     2
340
4E8
  0
ENDTAB
  0
TABLE
  2
BLOCK_RECORD
  5
494
330
0
100
AcDbSymbolTable
 70
     0
  0
BLOCK_RECORD
  5
502
330
494
100
AcDbSymbolTableRecord
100
AcDbBlockTableRecord
  2
*Model_Space
340
505
  0
BLOCK_RECORD
  5
4FE
330
494
100
AcDbSymbolTableRecord
100
AcDbBlockTableRecord
  2
*Paper_Space
340
501
  0
ENDTAB
  0
ENDSEC
  0
SECTION
  2
BLOCKS
  0
BLOCK
  5
503
330
502
100
AcDbEntity
  8
0
100
AcDbBlockBegin
  2
*Model_Space
 70
     0
 10
0.0
 20
0.0
 30
0.0
  3
*Model_Space
  1

  0
ENDBLK
  5
504
330
502
100
AcDbEntity
  8
0
100
AcDbBlockEnd
  0
BLOCK
  5
4FF
330
4FE
100
AcDbEntity
 67
     1
  8
0
100
AcDbBlockBegin
  2
*Paper_Space
 70
     0
 10
0.0
 20
0.0
 30
0.0
  3
*Paper_Space
  1

  0
ENDBLK
  5
500
330
4FE
100
AcDbEntity
 67
     1
  8
0
100
AcDbBlockEnd
  0
ENDSEC
  0
SECTION
  2
ENTITIES
  0
LINE
  5
2D
330
502
100
AcDbEntity
  8
HIBINO-BASE
  6
Continuous
 62
     7
100
AcDbLine
 10
-1350.0
 20
1999.44541
 30
0.0
 11
1350.0
 21
1999.44541
 31
0.0
  0
LINE
  5
2E
330
502
100
AcDbEntity
  8
HIBINO-BASE
  6
Continuous
 62
     7
100
AcDbLine
 10
1350.0
 20
-1900.554590000001
 30
0.0
 11
-1350.0
 21
-1900.554590000001
 31
0.0
  0
LINE
  5
2F
330
502
100
AcDbEntity
  8
HIBINO-BASE
  6
Continuous
 62
     7
100
AcDbLine
 10
-1350.0
 20
-1900.554590000001
 30
0.0
 11
-1350.0
 21
1999.44541
 31
0.0
  0
LINE
  5
30
330
502
100
AcDbEntity
  8
HIBINO-BASE
  6
Continuous
 62
     7
100
AcDbLine
 10
1350.0
 20
1999.44541
 30
0.0
 11
1350.0
 21
-1900.554590000001
 31
0.0
  0
LINE
  5
31
330
502
100
AcDbEntity
  8
HIBINO-BASE
  6
Continuous
 62
     7
100
AcDbLine
 10
0.0000000000001066
 20
-1563.054590000001
 30
0.0
 11
1350.0
 21
-1563.054590000001
 31
0.0
  0
LINE
  5
32
330
502
100
AcDbEntity
  8
HIBINO-BASE
  6
Continuous
 62
     7
100
AcDbLine
 10
0.0000000000001066
 20
-1900.554590000001
 30
0.0
 11
0.0000000000001066
 21
-1563.054590000001
 31
0.0
  0
TEXT
  5
33
330
502
100
AcDbEntity
  8
HIBINO-BASE
 62
     7
100
AcDbText
 10
13.50000000000019
 20
-1600.68499
 30
0.0
 40
24.4326171875
  1
NOTE
 41
0.7
 11
13.50000000000019
 21
-1576.2523728125
 31
0.0
100
AcDbText
 73
     3
  0
LINE
  5
34
330
502
100
AcDbEntity
  8
HIBINO-BASE
  6
Continuous
 62
     7
100
AcDbLine
 10
525.0000000000003
 20
-1900.554590000001
 30
0.0
 11
525.0000000000003
 21
-1563.054590000001
 31
0.0
  0
TEXT
  5
35
330
502
100
AcDbEntity
  8
HIBINO-BASE
 62
     7
100
AcDbText
 10
538.4999999999999
 20
-1600.68499
 30
0.0
 40
24.4326171875
  1
TITLE
 41
0.7
 11
538.4999999999999
 21
-1576.2523728125
 31
0.0
100
AcDbText
 73
     3
  0
LINE
  5
36
330
502
100
AcDbEntity
  8
HIBINO-BASE
  6
Continuous
 62
     7
100
AcDbLine
 10
0.0000000000001066
 20
-1750.554590000001
 30
0.0
 11
1350.0
 21
-1750.554590000001
 31
0.0
  0
TEXT
  5
37
330
502
100
AcDbEntity
  8
HIBINO-BASE
 62
     7
100
AcDbText
 10
726.0
 20
-1787.34019
 30
0.0
 40
24.4326171875
  1
DRAWN
 41
0.7
 11
726.0
 21
-1762.9075728125
 31
0.0
100
AcDbText
 73
     3
  0
TEXT
  5
38
330
502
100
AcDbEntity
  8
HIBINO-BASE
 62
     7
100
AcDbText
 10
351.0
 20
-1787.34019
 30
0.0
 40
24.4326171875
  1
DATE
 41
0.7
 11
351.0
 21
-1762.9075728125
 31
0.0
100
AcDbText
 73
     3
  0
TEXT
  5
39
330
502
100
AcDbEntity
  8
HIBINO-BASE
 62
     7
100
AcDbText
 10
201.0
 20
-1787.34019
 30
0.0
 40
24.4326171875
  1
SCALE
 41
0.7
 11
201.0
 21
-1762.9075728125
 31
0.0
100
AcDbText
 73
     3
  0
TEXT
  5
3A
330
502
100
AcDbEntity
  8
HIBINO-BASE
 62
     7
100
AcDbText
 10
538.4999999999999
 20
-1787.34019
 30
0.0
 40
24.4326171875
  1
DESIGN
 41
0.7
 11
538.4999999999999
 21
-1762.9075728125
 31
0.0
100
AcDbText
 73
     3
  0
TEXT
  5
3B
330
502
100
AcDbEntity
  8
HIBINO-BASE
 62
     7
100
AcDbText
 10
1100.999999999999
 20
-1787.34019
 30
0.0
 40
24.4326171875
  1
DRAWING NO.
 41
0.7
 11
1100.999999999999
 21
-1762.9075728125
 31
0.0
100
AcDbText
 73
     3
  0
TEXT
  5
3C
330
502
100
AcDbEntity
  8
HIBINO-BASE
 62
     7
100
AcDbText
 10
913.4999999999999
 20
-1787.34019
 30
0.0
 40
24.4326171875
  1
CHECK
 41
0.7
 11
913.4999999999999
 21
-1762.9075728125
 31
0.0
100
AcDbText
 73
     3
  0
LINE
  5
3D
330
502
100
AcDbEntity
  8
HIBINO-BASE
  6
Continuous
 62
     7
100
AcDbLine
 10
215.6250000000001
 20
-1881.804590000001
 30
0.0
 11
271.8750000000004
 21
-1825.554590000001
 31
0.0
  0
TEXT
  5
3E
330
502
100
AcDbEntity
  8
HIBINO-BASE
 62
     7
100
AcDbText
 10
206.2500000000001
 20
-1842.18874
 30
0.0
 40
24.4326171875
  1
1
 41
0.7
 11
206.2500000000001
 21
-1817.7561228125
 31
0.0
100
AcDbText
 73
     3
  0
LINE
  5
3F
330
502
100
AcDbEntity
  8
HIBINO-BASE
  6
Continuous
 62
     7
100
AcDbLine
 10
187.5000000000001
 20
-1900.554590000001
 30
0.0
 11
187.5000000000001
 21
-1750.554590000001
 31
0.0
  0
LINE
  5
40
330
502
100
AcDbEntity
  8
HIBINO-BASE
  6
Continuous
 62
     7
100
AcDbLine
 10
337.4999999999999
 20
-1900.554590000001
 30
0.0
 11
337.4999999999999
 21
-1750.554590000001
 31
0.0
  0
LINE
  5
41
330
502
100
AcDbEntity
  8
HIBINO-BASE
  6
Continuous
 62
     7
100
AcDbLine
 10
712.4999999999996
 20
-1750.554590000001
 30
0.0
 11
712.4999999999996
 21
-1900.554590000001
 31
0.0
  0
LINE
  5
42
330
502
100
AcDbEntity
  8
HIBINO-BASE
  6
Continuous
 62
     7
100
AcDbLine
 10
1087.5
 20
-1750.554590000001
 30
0.0
 11
1087.5
 21
-1900.554590000001
 31
0.0
  0
LINE
  5
43
330
502
100
AcDbEntity
  8
HIBINO-BASE
  6
Continuous
 62
     7
100
AcDbLine
 10
899.9999999999996
 20
-1900.554590000001
 30
0.0
 11
899.9999999999996
 21
-1750.554590000001
 31
0.0
  0
TEXT
  5
44
330
502
100
AcDbEntity
  8
HIBINO-BASE
 62
     7
100
AcDbText
 10
350.3481000000002
 20
-1857.59989
 30
0.0
 40
24.4326171875
  1
'17.02.
 41
0.7
 11
350.3481000000002
 21
-1833.1672728125
 31
0.0
100
AcDbText
 73
     3
  0
TEXT
  5
45
330
502
100
AcDbEntity
  8
HIBINO-BASE
 62
     7
100
AcDbText
 10
262.5
 20
-1870.31374
 30
0.0
 40
24.4326171875
  1
15
 41
0.7
 11
262.5
 21
-1845.8811228125
 31
0.0
100
AcDbText
 73
     3
  0
TEXT
  5
46
330
502
100
AcDbEntity
  8
HIBINO-BASE
 62
     7
100
AcDbText
 10
735.0871501655194
 20
-1857.59989
 30
0.0
 40
24.4326171875
  1
N.Sasaki
 41
0.7
 11
735.0871501655194
 21
-1833.1672728125
 31
0.0
100
AcDbText
 73
     3
  0
TEXT
  5
47
330
502
100
AcDbEntity
  8
HIBINO-BASE
 62
     7
100
AcDbText
 10
58.25000000000041
 20
-1870.91459
 30
0.0
 40
48.86523437499999
  1
A4
 41
0.7
 11
58.25000000000041
 21
-1822.049355625
 31
0.0
100
AcDbText
 73
     3
  0
TEXT
  5
48
330
502
100
AcDbEntity
  8
HIBINO-BASE
 62
     7
100
AcDbText
 10
14.37500000000003
 20
-1789.846415
 30
0.0
 40
24.4326171875
  1
PAPER SIZE
 41
0.7
 11
14.37500000000003
 21
-1765.4137978125
 31
0.0
100
AcDbText
 73
     3
  0
TEXT
  5
49
330
502
100
AcDbEntity
  8
HIBINO-BASE
 62
     7
100
AcDbText
 10
-1242.24
 20
-1996.684757
 30
0.0
 40
54.00066269531249
  1
Hibino Corporation
 41
0.7
 11
-1242.24
 21
-1942.684094304688
 31
0.0
100
AcDbText
 73
     3
  0
TEXT
  5
4A
330
502
100
AcDbEntity
  8
HIBINO-BASE
 62
     7
100
AcDbText
 10
751.02585
 20
-1996.684757
 30
0.0
 40
54.00066269531249
  1
ヒビノ株式会社
 41
0.7
 11
751.02585
 21
-1942.684094304688
 31
0.0
100
AcDbText
 73
     3
  0
LINE
  5
4B
330
502
100
AcDbEntity
  8
SPEC
  6
Continuous
 62
     7
100
AcDbLine
 10
-1237.5
 20
1849.44541
 30
0.0
 11
1200.0
 21
1849.44541
 31
0.0
  0
LINE
  5
4C
330
502
100
AcDbEntity
  8
SPEC
  6
Continuous
 62
     7
100
AcDbLine
 10
-1237.5
 20
1849.44541
 30
0.0
 11
-1237.5
 21
836.9454099999998
 31
0.0
  0
TEXT
  5
4D
330
502
100
AcDbEntity
  8
SPEC
 62
     7
100
AcDbText
 10
-1218.75
 20
1870.344459999999
 30
0.0
 40
36.64892578125
  1
仕様
 41
0.7
 11
-1218.75
 21
1906.993385781249
 31
0.0
100
AcDbText
 73
     3
  0
LINE
  5
4E
330
502
100
AcDbEntity
  8
SPEC
  6
Continuous
 62
     7
100
AcDbLine
 10
1200.0
 20
1849.44541
 30
0.0
 11
1200.0
 21
836.9454099999998
 31
0.0
  0
LINE
  5
4F
330
502
100
AcDbEntity
  8
SPEC
  6
Continuous
 62
     7
100
AcDbLine
 10
-1237.5
 20
1793.195409999999
 30
0.0
 11
1200.0
 21
1793.195409999999
 31
0.0
  0
LINE
  5
50
330
502
100
AcDbEntity
  8
SPEC
  6
Continuous
 62
     7
100
AcDbLine
 10
-1237.5
 20
1736.945409999999
 30
0.0
 11
1200.0
 21
1736.945409999999
 31
0.0
  0
LINE
  5
51
330
502
100
AcDbEntity
  8
SPEC
  6
Continuous
 62
     7
100
AcDbLine
 10
-1237.5
 20
1680.695409999999
 30
0.0
 11
1200.0
 21
1680.695409999999
 31
0.0
  0
LINE
  5
52
330
502
100
AcDbEntity
  8
SPEC
  6
Continuous
 62
     7
100
AcDbLine
 10
-1237.5
 20
1624.445409999999
 30
0.0
 11
1200.0
 21
1624.445409999999
 31
0.0
  0
LINE
  5
53
330
502
100
AcDbEntity
  8
SPEC
  6
Continuous
 62
     7
100
AcDbLine
 10
-1237.5
 20
1511.945409999999
 30
0.0
 11
1200.0
 21
1511.945409999999
 31
0.0
  0
LINE
  5
54
330
502
100
AcDbEntity
  8
SPEC
  6
Continuous
 62
     7
100
AcDbLine
 10
-1237.5
 20
1343.19541
 30
0.0
 11
1200.0
 21
1343.19541
 31
0.0
  0
LINE
  5
55
330
502
100
AcDbEntity
  8
SPEC
  6
Continuous
 62
     7
100
AcDbLine
 10
-1237.5
 20
1230.69541
 30
0.0
 11
1200.0
 21
1230.69541
 31
0.0
  0
LINE
  5
56
330
502
100
AcDbEntity
  8
SPEC
  6
Continuous
 62
     7
100
AcDbLine
 10
-1237.5
 20
1174.445409999999
 30
0.0
 11
1200.0
 21
1174.445409999999
 31
0.0
  0
LINE
  5
57
330
502
100
AcDbEntity
  8
SPEC
  6
Continuous
 62
     7
100
AcDbLine
 10
-1237.5
 20
1118.19541
 30
0.0
 11
1200.0
 21
1118.19541
 31
0.0
  0
LINE
  5
58
330
502
100
AcDbEntity
  8
SPEC
  6
Continuous
 62
     7
100
AcDbLine
 10
-1237.5
 20
1061.945409999999
 30
0.0
 11
1200.0
 21
1061.945409999999
 31
0.0
  0
LINE
  5
59
330
502
100
AcDbEntity
  8
SPEC
  6
Continuous
 62
     7
100
AcDbLine
 10
-1237.5
 20
1005.695409999999
 30
0.0
 11
1200.0
 21
1005.695409999999
 31
0.0
  0
LINE
  5
5A
330
502
100
AcDbEntity
  8
SPEC
  6
Continuous
 62
     7
100
AcDbLine
 10
-600.0
 20
1849.44541
 30
0.0
 11
-600.0
 21
836.9454099999998
 31
0.0
  0
TEXT
  5
5B
330
502
100
AcDbEntity
  8
SPEC
 62
     7
100
AcDbText
 10
-1224.0
 20
961.2641766666664
 30
0.0
 40
28.50472005208334
  1
付属品
 41
0.7
 11
-1224.0
 21
989.7688967187496
 31
0.0
100
AcDbText
 73
     3
  0
TEXT
  5
5C
330
502
100
AcDbEntity
  8
SPEC
 62
     7
100
AcDbText
 10
-1224.0
 20
1017.514176666666
 30
0.0
 40
28.50472005208334
  1
質量
 41
0.7
 11
-1224.0
 21
1046.01889671875
 31
0.0
100
AcDbText
 73
     3
  0
TEXT
  5
5D
330
502
100
AcDbEntity
  8
SPEC
 62
     7
100
AcDbText
 10
-1224.0
 20
1073.764176666666
 30
0.0
 40
28.50472005208333
  1
寸法(φ×H)
 41
0.7
 11
-1224.0
 21
1102.268896718749
 31
0.0
100
AcDbText
 73
     3
  0
TEXT
  5
5E
330
502
100
AcDbEntity
  8
SPEC
 62
     7
100
AcDbText
 10
-586.5
 20
1073.764176666666
 30
0.0
 40
28.50472005208333
  1
350×517mm(除突起部)
 41
0.7
 11
-586.5
 21
1102.268896718749
 31
0.0
100
AcDbText
 73
     3
  0
TEXT
  5
5F
330
502
100
AcDbEntity
  8
SPEC
 62
     7
100
AcDbText
 10
-586.5
 20
1017.514176666666
 30
0.0
 40
28.50472005208334
  1
8.6kg
 41
0.7
 11
-586.5
 21
1046.01889671875
 31
0.0
100
AcDbText
 73
     3
  0
LINE
  5
60
330
502
100
AcDbEntity
  8
SPEC
  6
Continuous
 62
     7
100
AcDbLine
 10
-1237.5
 20
836.9454099999998
 30
0.0
 11
1200.0
 21
836.9454099999998
 31
0.0
  0
TEXT
  5
61
330
502
100
AcDbEntity
  8
SPEC
 62
     7
100
AcDbText
 10
-1200.0
 20
786.6649999999999
 30
0.0
 40
28.50472005208333
  1
※1 2時間、ピンクノイズ:IEC/クレストファクター6dB
 41
0.7
 11
-1200.0
 21
815.1697200520834
 31
0.0
100
AcDbText
 73
     3
  0
TEXT
  5
62
330
502
100
AcDbEntity
  8
SPEC
 62
     7
100
AcDbText
 10
-1200.0
 20
736.6649999999999
 30
0.0
 40
28.50472005208333
  1
※2 断面が円形のケーブルに限る
 41
0.7
 11
-1200.0
 21
765.1697200520833
 31
0.0
100
AcDbText
 73
     3
  0
TEXT
  5
63
330
502
100
AcDbEntity
  8
SPEC
 62
     7
100
AcDbText
 10
-1224.0
 20
1805.014176666666
 30
0.0
 40
28.50472005208333
  1
周波数レンジ(-10dB)
 41
0.7
 11
-1224.0
 21
1833.518896718749
 31
0.0
100
AcDbText
 73
     3
  0
TEXT
  5
64
330
502
100
AcDbEntity
  8
SPEC
 62
     7
100
AcDbText
 10
-1224.0
 20
1748.764176666666
 30
0.0
 40
28.50472005208333
  1
カバレージ角(水平×垂直)
 41
0.7
 11
-1224.0
 21
1777.268896718749
 31
0.0
100
AcDbText
 73
     3
  0
TEXT
  5
65
330
502
100
AcDbEntity
  8
SPEC
 62
     7
100
AcDbText
 10
-1224.0
 20
1692.514176666666
 30
0.0
 40
28.50472005208333
  1
最大音圧レベル
 41
0.7
 11
-1224.0
 21
1721.018896718749
 31
0.0
100
AcDbText
 73
     3
  0
TEXT
  5
66
330
502
100
AcDbEntity
  8
SPEC
 62
     7
100
AcDbText
 10
-1224.0
 20
1636.264176666666
 30
0.0
 40
28.50472005208333
  1
感度(1W、1m)
 41
0.7
 11
-1224.0
 21
1664.768896718749
 31
0.0
100
AcDbText
 73
     3
  0
TEXT
  5
67
330
502
100
AcDbEntity
  8
SPEC
 62
     7
100
AcDbText
 10
-1224.0
 20
1580.014176666666
 30
0.0
 40
28.50472005208333
  1
公称インピーダンス
 41
0.7
 11
-1224.0
 21
1608.518896718749
 31
0.0
100
AcDbText
 73
     3
  0
TEXT
  5
68
330
502
100
AcDbEntity
  8
SPEC
 62
     7
100
AcDbText
 10
-1224.0
 20
1523.764176666666
 30
0.0
 40
28.50472005208333
  1
トランス・タップ
 41
0.7
 11
-1224.0
 21
1552.268896718749
 31
0.0
100
AcDbText
 73
     3
  0
TEXT
  5
69
330
502
100
AcDbEntity
  8
SPEC
 62
     7
100
AcDbText
 10
-1224.0
 20
1411.264176666666
 30
0.0
 40
28.50472005208333
  1
許容入力(プログラム/ピンク) ※1
 41
0.7
 11
-1224.0
 21
1439.76889671875
 31
0.0
100
AcDbText
 73
     3
  0
TEXT
  5
6A
330
502
100
AcDbEntity
  8
SPEC
 62
     7
100
AcDbText
 10
-1224.0
 20
1355.014176666666
 30
0.0
 40
28.50472005208333
  1
ドライバー構成
 41
0.7
 11
-1224.0
 21
1383.518896718749
 31
0.0
100
AcDbText
 73
     3
  0
TEXT
  5
6B
330
502
100
AcDbEntity
  8
SPEC
 62
     7
100
AcDbText
 10
-1224.0
 20
1242.514176666666
 30
0.0
 40
28.50472005208333
  1
入力
 41
0.7
 11
-1224.0
 21
1271.018896718749
 31
0.0
100
AcDbText
 73
     3
  0
TEXT
  5
6C
330
502
100
AcDbEntity
  8
SPEC
 62
     7
100
AcDbText
 10
-1224.0
 20
1186.264176666666
 30
0.0
 40
28.50472005208333
  1
適合ケーブル
 41
0.7
 11
-1224.0
 21
1214.768896718749
 31
0.0
100
AcDbText
 73
     3
  0
TEXT
  5
6D
330
502
100
AcDbEntity
  8
SPEC
 62
     7
100
AcDbText
 10
-1224.0
 20
1130.014176666666
 30
0.0
 40
28.50472005208333
  1
エンクロージャー
 41
0.7
 11
-1224.0
 21
1158.518896718749
 31
0.0
100
AcDbText
 73
     3
  0
TEXT
  5
6E
330
502
100
AcDbEntity
  8
SPEC
 62
     7
100
AcDbText
 10
-586.5
 20
1242.514176666666
 30
0.0
 40
28.50472005208333
  1
先バラケーブル
 41
0.7
 11
-586.5
 21
1271.018896718749
 31
0.0
100
AcDbText
 73
     3
  0
TEXT
  5
6F
330
502
100
AcDbEntity
  8
SPEC
 62
     7
100
AcDbText
 10
-586.5
 20
1186.264176666666
 30
0.0
 40
28.50472005208333
  1
φ4.0～9.0mm ※2
 41
0.7
 11
-586.5
 21
1214.768896718749
 31
0.0
100
AcDbText
 73
     3
  0
TEXT
  5
70
330
502
100
AcDbEntity
  8
SPEC
 62
     7
100
AcDbText
 10
-586.5
 20
1130.014176666666
 30
0.0
 40
28.50472005208333
  1
ポリエチレン、緑
 41
0.7
 11
-586.5
 21
1158.518896718749
 31
0.0
100
AcDbText
 73
     3
  0
LINE
  5
71
330
502
100
AcDbEntity
  8
SPEC
  6
Continuous
 62
     7
100
AcDbLine
 10
-1237.5
 20
1568.195409999999
 30
0.0
 11
1200.0
 21
1568.195409999999
 31
0.0
  0
LINE
  5
72
330
502
100
AcDbEntity
  8
SPEC
  6
Continuous
 62
     7
100
AcDbLine
 10
-1237.5
 20
1455.695409999999
 30
0.0
 11
1200.0
 21
1455.695409999999
 31
0.0
  0
LINE
  5
73
330
502
100
AcDbEntity
  8
SPEC
  6
Continuous
 62
     7
100
AcDbLine
 10
-1237.5
 20
1399.445409999999
 30
0.0
 11
1200.0
 21
1399.445409999999
 31
0.0
  0
LINE
  5
74
330
502
100
AcDbEntity
  8
SPEC
  6
Continuous
 62
     7
100
AcDbLine
 10
-1237.5
 20
1286.945409999999
 30
0.0
 11
1200.0
 21
1286.945409999999
 31
0.0
  0
TEXT
  5
75
330
502
100
AcDbEntity
  8
SPEC
 62
     7
100
AcDbText
 10
-586.5
 20
1805.014176666666
 30
0.0
 40
28.50472005208333
  1
47Hz～16kHz
 41
0.7
 11
-586.5
 21
1833.518896718749
 31
0.0
100
AcDbText
 73
     3
  0
TEXT
  5
76
330
502
100
AcDbEntity
  8
SPEC
 62
     7
100
AcDbText
 10
-586.5
 20
1748.764176666666
 30
0.0
 40
28.50472005208333
  1
360°×160°
 41
0.7
 11
-586.5
 21
1777.268896718749
 31
0.0
100
AcDbText
 73
     3
  0
TEXT
  5
77
330
502
100
AcDbEntity
  8
SPEC
 62
     7
100
AcDbText
 10
-586.5
 20
1692.915
 30
0.0
 40
28.50472005208333
  1
108dB SPL
 41
0.7
 11
-586.5
 21
1721.419720052083
 31
0.0
100
AcDbText
 73
     3
  0
TEXT
  5
78
330
502
100
AcDbEntity
  8
SPEC
 62
     7
100
AcDbText
 10
-586.5
 20
1636.264176666666
 30
0.0
 40
28.50472005208333
  1
87dB SPL
 41
0.7
 11
-586.5
 21
1664.768896718749
 31
0.0
100
AcDbText
 73
     3
  0
TEXT
  5
79
330
502
100
AcDbEntity
  8
SPEC
 62
     7
100
AcDbText
 10
-586.5
 20
1580.014176666666
 30
0.0
 40
28.50472005208333
  1
8Ω
 41
0.7
 11
-586.5
 21
1608.518896718749
 31
0.0
100
AcDbText
 73
     3
  0
TEXT
  5
7A
330
502
100
AcDbEntity
  8
SPEC
 62
     7
100
AcDbText
 10
-711.5
 20
1523.764176666666
 30
0.0
 40
28.50472005208333
  1
70V^I
 41
0.7
 11
-711.5
 21
1552.268896718749
 31
0.0
100
AcDbText
 73
     3
  0
TEXT
  5
7B
330
502
100
AcDbEntity
  8
SPEC
 62
     7
100
AcDbText
 10
-586.5
 20
1411.264176666666
 30
0.0
 40
28.50472005208333
  1
240W/120W
 41
0.7
 11
-586.5
 21
1439.76889671875
 31
0.0
100
AcDbText
 73
     3
  0
TEXT
  5
7C
330
502
100
AcDbEntity
  8
SPEC
 62
     7
100
AcDbText
 10
-711.5
 20
1355.014176666666
 30
0.0
 40
28.50472005208333
  1
LF
 41
0.7
 11
-711.5
 21
1383.518896718749
 31
0.0
100
AcDbText
 73
     3
  0
TEXT
  5
7D
330
502
100
AcDbEntity
  8
SPEC
 62
     7
100
AcDbText
 10
-711.5
 20
1467.514176666666
 30
0.0
 40
28.50472005208333
  1
100V
 41
0.7
 11
-711.5
 21
1496.01889671875
 31
0.0
100
AcDbText
 73
     3
  0
TEXT
  5
7E
330
502
100
AcDbEntity
  8
SPEC
 62
     7
100
AcDbText
 10
-711.5
 20
1298.764176666666
 30
0.0
 40
28.50472005208333
  1
HF
 41
0.7
 11
-711.5
 21
1327.26889671875
 31
0.0
100
AcDbText
 73
     3
  0
TEXT
  5
7F
330
502
100
AcDbEntity
  8
SPEC
 62
     7
100
AcDbText
 10
-586.5
 20
1523.764176666666
 30
0.0
 40
28.50472005208333
  1
60W、30W、15W、7.5W
 41
0.7
 11
-586.5
 21
1552.268896718749
 31
0.0
100
AcDbText
 73
     3
  0
TEXT
  5
80
330
502
100
AcDbEntity
  8
SPEC
 62
     7
100
AcDbText
 10
-586.5
 20
1355.014176666666
 30
0.0
 40
28.50472005208333
  1
8インチ(203mm)
 41
0.7
 11
-586.5
 21
1383.518896718749
 31
0.0
100
AcDbText
 73
     3
  0
TEXT
  5
81
330
502
100
AcDbEntity
  8
SPEC
 62
     7
100
AcDbText
 10
-586.5
 20
1467.514176666666
 30
0.0
 40
28.50472005208333
  1
60W、30W、15W
 41
0.7
 11
-586.5
 21
1496.01889671875
 31
0.0
100
AcDbText
 73
     3
  0
TEXT
  5
82
330
502
100
AcDbEntity
  8
SPEC
 62
     7
100
AcDbText
 10
-586.5
 20
1298.764176666666
 30
0.0
 40
28.50472005208333
  1
1インチ(25mm)
 41
0.7
 11
-586.5
 21
1327.26889671875
 31
0.0
100
AcDbText
 73
     3
  0
LINE
  5
83
330
502
100
AcDbEntity
  8
SPEC
  6
Continuous
 62
     7
100
AcDbLine
 10
-725.0
 20
1568.195409999999
 30
0.0
 11
-725.0
 21
1455.695409999999
 31
0.0
  0
LINE
  5
84
330
502
100
AcDbEntity
  8
SPEC
  6
Continuous
 62
     7
100
AcDbLine
 10
-725.0
 20
1399.445409999999
 30
0.0
 11
-725.0
 21
1286.945409999999
 31
0.0
  0
TEXT
  5
85
330
502
100
AcDbEntity
  8
SPEC
 62
     7
100
AcDbText
 10
-586.5
 20
961.2641766666664
 30
0.0
 40
28.50472005208333
  1
シールドプレート×1、シールドプレート用ねじ×4、防水ケーブルグランド×2、
 41
0.7
 11
-586.5
 21
989.7688967187496
 31
0.0
100
AcDbText
 73
     3
  0
TEXT
  5
86
330
502
100
AcDbEntity
  8
SPEC
 62
     7
100
AcDbText
 10
-586.5
 20
905.0141766666664
 30
0.0
 40
28.50472005208333
  1
ジェル入りワイヤーナットコネクター×2、セキュリティーねじ×1、セキュリティーねじ穴キャップ×1、
 41
0.7
 11
-586.5
 21
933.5188967187496
 31
0.0
100
AcDbText
 73
     3
  0
TEXT
  5
87
330
502
100
AcDbEntity
  8
SPEC
 62
     7
100
AcDbText
 10
-586.5
 20
848.7641766666664
 30
0.0
 40
28.50472005208333
  1
セキュリティーねじ用スクリュードライバー×1
 41
0.7
 11
-586.5
 21
877.2688967187496
 31
0.0
100
AcDbText
 73
     3
  0
TEXT
  5
88
330
502
100
AcDbEntity
  8
DIMNSIONS
 62
     7
100
AcDbText
 10
-299.9999999999999
 20
-1716.51224
 30
0.0
 40
36.64892578125
  1
(単位：mm)
 41
0.7
 11
-299.9999999999999
 21
-1679.86331421875
 31
0.0
100
AcDbText
 73
     3
  0
LINE
  5
89
330
502
100
AcDbEntity
  8
DIMNSIONS
  6
Continuous
 62
     7
100
AcDbLine
 10
-729.9999999999442
 20
-83.42999999999916
 30
0.0
 11
-1065.0
 21
-83.42999999999916
 31
0.0
  0
LINE
  5
8A
330
502
100
AcDbEntity
  8
DIMNSIONS
  6
Continuous
 62
     7
100
AcDbLine
 10
-916.0984084776819
 20
-599.9999999999992
 30
0.0
 11
-1065.0
 21
-599.9999999999992
 31
0.0
  0
LINE
  5
8B
330
502
100
AcDbEntity
  8
DIMNSIONS
  6
Continuous
 62
     7
100
AcDbLine
 10
-1050.0
 20
-83.42999999999916
 30
0.0
 11
-1050.0
 21
-599.9999999999992
 31
0.0
  0
LINE
  5
8C
330
502
100
AcDbEntity
  8
DIMNSIONS
  6
Continuous
 62
     7
100
AcDbLine
 10
-1050.0
 20
-83.42999999999916
 30
0.0
 11
-1039.949403072746
 21
-120.9393383789054
 31
0.0
  0
LINE
  5
8D
330
502
100
AcDbEntity
  8
DIMNSIONS
  6
Continuous
 62
     7
100
AcDbLine
 10
-1050.0
 20
-83.42999999999916
 30
0.0
 11
-1060.050596927253
 21
-120.9393383789054
 31
0.0
  0
LINE
  5
8E
330
502
100
AcDbEntity
  8
DIMNSIONS
  6
Continuous
 62
     7
100
AcDbLine
 10
-1050.0
 20
-599.9999999999992
 30
0.0
 11
-1060.050596927253
 21
-562.4906616210928
 31
0.0
  0
LINE
  5
8F
330
502
100
AcDbEntity
  8
DIMNSIONS
  6
Continuous
 62
     7
100
AcDbLine
 10
-1050.0
 20
-599.9999999999992
 30
0.0
 11
-1039.949403072746
 21
-562.4906616210928
 31
0.0
  0
TEXT
  5
90
330
502
100
AcDbEntity
  8
DIMNSIONS
 62
     7
100
AcDbText
 10
-1064.908333333333
 20
-381.4024999999992
 30
0.0
 40
40.72102864583334
  1
517
 50
90.0
 41
0.7
 11
-1105.629361979166
 21
-381.4024999999992
 31
0.0
100
AcDbText
 73
     3
  0
LINE
  5
91
330
502
100
AcDbEntity
  8
DIMNSIONS
  6
Continuous
 62
     7
100
AcDbLine
 10
-729.999999999951
 20
-725.0017499999836
 30
0.0
 11
-990.0
 21
-725.0017499999836
 31
0.0
  0
LINE
  5
92
330
502
100
AcDbEntity
  8
DIMNSIONS
  6
Continuous
 62
     7
100
AcDbLine
 10
-730.0003362306994
 20
-1095.977399995393
 30
0.0
 11
-990.0
 21
-1095.977399995393
 31
0.0
  0
LINE
  5
93
330
502
100
AcDbEntity
  8
DIMNSIONS
  6
Continuous
 62
     7
100
AcDbLine
 10
-975.0
 20
-725.0017499999836
 30
0.0
 11
-975.0
 21
-1095.977399995393
 31
0.0
  0
LINE
  5
94
330
502
100
AcDbEntity
  8
DIMNSIONS
  6
Continuous
 62
     7
100
AcDbLine
 10
-975.0
 20
-725.0017499999836
 30
0.0
 11
-964.9494030727465
 21
-762.5110883788899
 31
0.0
  0
LINE
  5
95
330
502
100
AcDbEntity
  8
DIMNSIONS
  6
Continuous
 62
     7
100
AcDbLine
 10
-975.0
 20
-725.0017499999836
 30
0.0
 11
-985.0505969272536
 21
-762.5110883788899
 31
0.0
  0
LINE
  5
96
330
502
100
AcDbEntity
  8
DIMNSIONS
  6
Continuous
 62
     7
100
AcDbLine
 10
-975.0
 20
-1095.977399995393
 30
0.0
 11
-985.0505969272536
 21
-1058.468061616487
 31
0.0
  0
LINE
  5
97
330
502
100
AcDbEntity
  8
DIMNSIONS
  6
Continuous
 62
     7
100
AcDbLine
 10
-975.0
 20
-1095.977399995393
 30
0.0
 11
-964.9494030727465
 21
-1058.468061616487
 31
0.0
  0
TEXT
  5
98
330
502
100
AcDbEntity
  8
DIMNSIONS
 62
     7
100
AcDbText
 10
-989.9083333333335
 20
-950.1770749976884
 30
0.0
 40
40.72102864583334
  1
371
 50
90.0
 41
0.7
 11
-1030.629361979167
 21
-950.1770749976884
 31
0.0
100
AcDbText
 73
     3
  0
LINE
  5
99
330
502
100
AcDbEntity
  8
DIMNSIONS
  6
Continuous
 62
     7
100
AcDbLine
 10
-916.0984084776819
 20
-599.9999999999992
 30
0.0
 11
-990.0
 21
-599.9999999999992
 31
0.0
  0
LINE
  5
9A
330
502
100
AcDbEntity
  8
DIMNSIONS
  6
Continuous
 62
     7
100
AcDbLine
 10
-904.9982499999661
 20
-496.4299999999991
 30
0.0
 11
-990.0
 21
-496.4299999999991
 31
0.0
  0
LINE
  5
9B
330
502
100
AcDbEntity
  8
DIMNSIONS
  6
Continuous
 62
     7
100
AcDbLine
 10
-975.0
 20
-496.4299999999991
 30
0.0
 11
-975.0
 21
-395.625
 31
0.0
  0
LINE
  5
9C
330
502
100
AcDbEntity
  8
DIMNSIONS
  6
Continuous
 62
     7
100
AcDbLine
 10
-975.0
 20
-599.9999999999992
 30
0.0
 11
-975.0
 21
-496.4299999999991
 31
0.0
  0
LINE
  5
9D
330
502
100
AcDbEntity
  8
DIMNSIONS
  6
Continuous
 62
     7
100
AcDbLine
 10
-975.0
 20
-599.9999999999992
 30
0.0
 11
-985.0505969272536
 21
-562.4906616210928
 31
0.0
  0
LINE
  5
9E
330
502
100
AcDbEntity
  8
DIMNSIONS
  6
Continuous
 62
     7
100
AcDbLine
 10
-975.0
 20
-599.9999999999992
 30
0.0
 11
-964.9494030727465
 21
-562.4906616210928
 31
0.0
  0
LINE
  5
9F
330
502
100
AcDbEntity
  8
DIMNSIONS
  6
Continuous
 62
     7
100
AcDbLine
 10
-975.0
 20
-496.4299999999991
 30
0.0
 11
-964.9494030727465
 21
-533.9393383789054
 31
0.0
  0
LINE
  5
A0
330
502
100
AcDbEntity
  8
DIMNSIONS
  6
Continuous
 62
     7
100
AcDbLine
 10
-975.0
 20
-496.4299999999991
 30
0.0
 11
-985.0505969272536
 21
-533.9393383789054
 31
0.0
  0
TEXT
  5
A1
330
502
100
AcDbEntity
  8
DIMNSIONS
 62
     7
100
AcDbText
 10
-989.9083333333335
 20
-475.0
 30
0.0
 40
40.72102864583334
  1
104
 50
90.0
 41
0.7
 11
-1030.629361979167
 21
-475.0
 31
0.0
100
AcDbText
 73
     3
  0
LINE
  5
A2
330
502
100
AcDbEntity
  8
DIMNSIONS
  6
Continuous
 62
     7
100
AcDbLine
 10
-701.7380651067902
 20
-1098.723815541813
 30
0.0
 11
-750.0
 21
-1175.0
 31
0.0
  0
LINE
  5
A3
330
502
100
AcDbEntity
  8
DIMNSIONS
  6
Continuous
 62
     7
100
AcDbLine
 10
-701.7380651067902
 20
-1098.723815541813
 30
0.0
 11
-713.0915965130214
 21
-1135.859543470926
 31
0.0
  0
LINE
  5
A4
330
502
100
AcDbEntity
  8
DIMNSIONS
  6
Continuous
 62
     7
100
AcDbLine
 10
-701.7380651067902
 20
-1098.723815541813
 30
0.0
 11
-730.1383756918076
 21
-1125.207533613337
 31
0.0
  0
LINE
  5
A5
330
502
100
AcDbEntity
  8
DIMNSIONS
  6
Continuous
 62
     7
100
AcDbLine
 10
-750.0
 20
-1175.0
 30
0.0
 11
-780.0
 21
-1175.0
 31
0.0
  0
TEXT
  5
A6
330
502
100
AcDbEntity
  8
DIMNSIONS
 62
     7
100
AcDbText
 10
-1097.5
 20
-1194.05
 30
0.0
 40
40.72102864583337
  1
φ6.5(3ヵ所)
 41
0.7
 11
-1097.5
 21
-1153.328971354166
 31
0.0
100
AcDbText
 73
     3
  0
LINE
  5
A7
330
502
100
AcDbEntity
  8
DIMNSIONS
  6
Continuous
 62
     7
100
AcDbLine
 10
-621.7384034112736
 20
-743.4768068225685
 30
0.0
 11
-600.0
 21
-700.0
 31
0.0
  0
LINE
  5
A8
330
502
100
AcDbEntity
  8
DIMNSIONS
  6
Continuous
 62
     7
100
AcDbLine
 10
-621.7384034112736
 20
-743.4768068225685
 30
0.0
 11
-613.6646675699048
 21
-705.4928660872892
 31
0.0
  0
LINE
  5
A9
330
502
100
AcDbEntity
  8
DIMNSIONS
  6
Continuous
 62
     7
100
AcDbLine
 10
-621.7384034112736
 20
-743.4768068225685
 30
0.0
 11
-595.7543727015636
 21
-714.6186171306585
 31
0.0
  0
LINE
  5
AA
330
502
100
AcDbEntity
  8
DIMNSIONS
  6
Continuous
 62
     7
100
AcDbLine
 10
-600.0
 20
-700.0
 30
0.0
 11
-570.0
 21
-700.0
 31
0.0
  0
TEXT
  5
AB
330
502
100
AcDbEntity
  8
DIMNSIONS
 62
     7
100
AcDbText
 10
-570.0
 20
-719.0500000000001
 30
0.0
 40
40.72102864583334
  1
φ350
 41
0.7
 11
-570.0
 21
-678.3289713541667
 31
0.0
100
AcDbText
 73
     3
  0
LINE
  5
AC
330
502
100
AcDbEntity
  8
DIMNSIONS
  6
Continuous
 62
     7
100
AcDbLine
 10
-729.999999999951
 20
-725.0017499999836
 30
0.0
 11
-1065.0
 21
-725.0017499999836
 31
0.0
  0
LINE
  5
AD
330
502
100
AcDbEntity
  8
DIMNSIONS
  6
Continuous
 62
     7
100
AcDbLine
 10
-730.0
 20
-1113.001749995658
 30
0.0
 11
-1065.0
 21
-1113.001749995658
 31
0.0
  0
LINE
  5
AE
330
502
100
AcDbEntity
  8
DIMNSIONS
  6
Continuous
 62
     7
100
AcDbLine
 10
-1050.0
 20
-725.0017499999836
 30
0.0
 11
-1050.0
 21
-1113.001749995658
 31
0.0
  0
LINE
  5
AF
330
502
100
AcDbEntity
  8
DIMNSIONS
  6
Continuous
 62
     7
100
AcDbLine
 10
-1050.0
 20
-725.0017499999836
 30
0.0
 11
-1039.949403072746
 21
-762.5110883788899
 31
0.0
  0
LINE
  5
B0
330
502
100
AcDbEntity
  8
DIMNSIONS
  6
Continuous
 62
     7
100
AcDbLine
 10
-1050.0
 20
-725.0017499999836
 30
0.0
 11
-1060.050596927253
 21
-762.5110883788899
 31
0.0
  0
LINE
  5
B1
330
502
100
AcDbEntity
  8
DIMNSIONS
  6
Continuous
 62
     7
100
AcDbLine
 10
-1050.0
 20
-1113.001749995658
 30
0.0
 11
-1060.050596927253
 21
-1075.492411616752
 31
0.0
  0
LINE
  5
B2
330
502
100
AcDbEntity
  8
DIMNSIONS
  6
Continuous
 62
     7
100
AcDbLine
 10
-1050.0
 20
-1113.001749995658
 30
0.0
 11
-1039.949403072746
 21
-1075.492411616752
 31
0.0
  0
TEXT
  5
B3
330
502
100
AcDbEntity
  8
DIMNSIONS
 62
     7
100
AcDbText
 10
-1064.908333333333
 20
-958.6892499978212
 30
0.0
 40
40.72102864583334
  1
388
 50
90.0
 41
0.7
 11
-1105.629361979166
 21
-958.6892499978212
 31
0.0
100
AcDbText
 73
     3
  0
LINE
  5
B4
330
502
100
AcDbEntity
  8
DIMNSIONS
  6
Continuous
 62
     7
100
AcDbLine
 10
-699.9999999999509
 20
-1179.999999999999
 30
0.0
 11
-699.9999999999509
 21
-1214.999999999999
 31
0.0
  0
LINE
  5
B5
330
502
100
AcDbEntity
  8
DIMNSIONS
  6
Continuous
 62
     7
100
AcDbLine
 10
-457.5128869403081
 20
-759.9999999999995
 30
0.0
 11
-427.2019978078527
 21
-742.4999999999995
 31
0.0
  0
ARC
  5
B6
330
502
100
AcDbEntity
  8
DIMNSIONS
  6
Continuous
 62
     7
100
AcDbCircle
 10
-699.9999999999509
 20
-899.9999999999996
 30
0.0
 40
300.0
100
AcDbArc
 50
270.0
 51
30.00000000000003
  0
LINE
  5
B7
330
502
100
AcDbEntity
  8
DIMNSIONS
  6
Continuous
 62
     7
100
AcDbLine
 10
-440.1923788646193
 20
-749.9999999999995
 30
0.0
 11
-412.7336374129668
 21
-777.458741451652
 31
0.0
  0
LINE
  5
B8
330
502
100
AcDbEntity
  8
DIMNSIONS
  6
Continuous
 62
     7
100
AcDbLine
 10
-440.1923788646193
 20
-749.9999999999995
 30
0.0
 11
-430.1417819373657
 21
-787.5093383789057
 31
0.0
  0
LINE
  5
B9
330
502
100
AcDbEntity
  8
DIMNSIONS
  6
Continuous
 62
     7
100
AcDbLine
 10
-699.9999999999509
 20
-1199.999999999999
 30
0.0
 11
-662.4906616210447
 21
-1189.949403072746
 31
0.0
  0
LINE
  5
BA
330
502
100
AcDbEntity
  8
DIMNSIONS
  6
Continuous
 62
     7
100
AcDbLine
 10
-699.9999999999509
 20
-1199.999999999999
 30
0.0
 11
-662.4906616210447
 21
-1210.050596927253
 31
0.0
  0
TEXT
  5
BB
330
502
100
AcDbEntity
  8
DIMNSIONS
 62
     7
100
AcDbText
 10
-430.9294681314498
 20
-1016.152178413238
 30
0.0
 40
40.72102864583334
  1
120°
 50
79.69515353123218
 41
0.7
 11
-470.9936629244015
 21
-1008.867779359973
 31
0.0
100
AcDbText
 73
     3
  0
TEXT
  5
BC
330
502
100
AcDbEntity
  8
DATA
 62
     7
100
AcDbText
 10
749.9999999999996
 20
-1733.59124
 30
0.0
 40
36.64892578125
  1
Control 88M
 41
0.7
 11
749.9999999999996
 21
-1696.94231421875
 31
0.0
100
AcDbText
 73
     3
  0
LINE
  5
BD
330
502
100
AcDbEntity
  8
DATA
  6
Continuous
 62
     7
100
AcDbLine
 10
500.0
 20
-900.0
 30
0.0
 11
1100.0
 21
-900.0
 31
0.0
  0
TEXT
  5
BE
330
502
100
AcDbEntity
  8
DATA
 62
     7
100
AcDbText
 10
-1312.5
 20
-1782.410423333334
 30
0.0
 40
28.50472005208334
  1
※仕様及び外観は予告なく変更されることがあります。
 41
0.7
 11
-1312.5
 21
-1753.905703281251
 31
0.0
100
AcDbText
 73
     3
  0
TEXT
  5
BF
330
502
100
AcDbEntity
  8
DATA
 62
     7
100
AcDbText
 10
-1312.5
 20
-1819.45209
 30
0.0
 40
28.50472005208334
  1
　また、同一商品でも若干の個体差があることがあります。ご了承ください。
 41
0.7
 11
-1312.5
 21
-1790.947369947917
 31
0.0
100
AcDbText
 73
     3
  0
LINE
  5
C0
330
502
100
AcDbEntity
  8
DATA
  6
Continuous
 62
     7
100
AcDbLine
 10
-527.9999999999446
 20
-343.4299999999992
 30
0.0
 11
-525.0017499999349
 21
-470.4299999999991
 31
0.0
  0
LINE
  5
C1
330
502
100
AcDbEntity
  8
DATA
  6
Continuous
 62
     7
100
AcDbLine
 10
-527.9999999999446
 20
-343.4299999999992
 30
0.0
 11
-871.9999999999446
 21
-343.4299999999992
 31
0.0
  0
LINE
  5
C2
330
502
100
AcDbEntity
  8
DATA
  6
Continuous
 62
     7
100
AcDbLine
 10
-527.9999999999446
 20
-343.4299999999992
 30
0.0
 11
-561.4999999999446
 21
-122.4299999999991
 31
0.0
  0
LINE
  5
C3
330
502
100
AcDbEntity
  8
DATA
  6
Continuous
 62
     7
100
AcDbLine
 10
-668.5978749999463
 20
-369.2481456998473
 30
0.0
 11
-668.597874999947
 21
-343.4314999999991
 31
0.0
  0
LINE
  5
C4
330
502
100
AcDbEntity
  8
DATA
  6
Continuous
 62
     7
100
AcDbLine
 10
-731.4021249999771
 20
-369.2481456998698
 30
0.0
 11
-731.4021249999661
 21
-343.4314999999991
 31
0.0
  0
ARC
  5
C5
330
502
100
AcDbEntity
  8
DATA
  6
Continuous
 62
     7
100
AcDbCircle
 10
-699.9999999999564
 20
-404.0253842787961
 30
0.0
 40
46.59503475002741
100
AcDbArc
 50
63.17351591113871
 51
116.8264840888349
  0
LINE
  5
C6
330
502
100
AcDbEntity
  8
DATA
  6
Continuous
 62
     7
100
AcDbLine
 10
-557.145863410704
 20
-343.4299999999992
 30
0.0
 11
-585.1453392376712
 21
-122.4299999999991
 31
0.0
  0
LINE
  5
C7
330
502
100
AcDbEntity
  8
DATA
  6
Continuous
 62
     7
100
AcDbLine
 10
-874.998249999966
 20
-496.4299999999991
 30
0.0
 11
-525.0017499999349
 21
-496.4299999999991
 31
0.0
  0
LINE
  5
C8
330
502
100
AcDbEntity
  8
DATA
  6
Continuous
 62
     7
100
AcDbLine
 10
-715.243749999956
 20
-343.4314999999991
 30
0.0
 11
-715.243749999956
 21
-359.9944252920359
 31
0.0
  0
LINE
  5
C9
330
502
100
AcDbEntity
  8
DATA
  6
Continuous
 62
     7
100
AcDbLine
 10
-684.7562499999563
 20
-343.4314999999991
 30
0.0
 11
-684.7562499999563
 21
-359.9944252920359
 31
0.0
  0
LINE
  5
CA
330
502
100
AcDbEntity
  8
DATA
  6
Continuous
 62
     7
100
AcDbLine
 10
-719.4999999999446
 20
-432.9299999999991
 30
0.0
 11
-680.4999999999446
 21
-432.9299999999991
 31
0.0
  0
LINE
  5
CB
330
502
100
AcDbEntity
  8
DATA
  6
Continuous
 62
     7
100
AcDbLine
 10
-681.2499999999446
 20
-462.9299999999991
 30
0.0
 11
-681.2499999999446
 21
-432.9299999999991
 31
0.0
  0
LINE
  5
CC
330
502
100
AcDbEntity
  8
DATA
  6
Continuous
 62
     7
100
AcDbLine
 10
-680.4999999999446
 20
-432.9299999999991
 30
0.0
 11
-680.4999999999446
 21
-464.4299999999991
 31
0.0
  0
LWPOLYLINE
  5
CD
330
502
100
AcDbEntity
  8
DATA
  6
Continuous
 62
     7
100
AcDbPolyline
 90
      770
 70
   129
 43
0.0
 10
-812.0481901250073
 20
-440.4785316479292
 10
-811.9934820433382
 20
-440.480085363096
 10
-811.9390385279388
 20
-440.4821155345984
 10
-811.884859578809
 20
-440.4846221624366
 10
-811.8309451959486
 20
-440.4876052466105
 10
-811.7772953793581
 20
-440.4910647871203
 10
-811.7239101290373
 20
-440.4950007839659
 10
-811.6707894449856
 20
-440.4994132371474
 10
-811.6179333272032
 20
-440.5043021466647
 10
-811.5653417756911
 20
-440.5096675125177
 10
-811.5130147904483
 20
-440.5155093347065
 10
-811.4609523714751
 20
-440.5218276132313
 10
-811.4091545187713
 20
-440.5286223480916
 10
-811.3576212323373
 20
-440.535893539288
 10
-811.3063525121727
 20
-440.54364118682
 10
-811.2553483582777
 20
-440.551865290688
 10
-811.2046087706525
 20
-440.5605658508917
 10
-811.1541337492965
 20
-440.5697428674312
 10
-811.1039232942104
 20
-440.5793963403064
 10
-811.0539774053936
 20
-440.5895262695175
 10
-811.0042960828467
 20
-440.6001326550644
 10
-810.9548793265691
 20
-440.6112154969472
 10
-810.9057271365612
 20
-440.6227747951657
 10
-810.856839512823
 20
-440.6348105497199
 10
-810.8082164553543
 20
-440.6473227606102
 10
-810.7598579641551
 20
-440.660311427836
 10
-810.7117640392257
 20
-440.6737765513978
 10
-810.6639346805655
 20
-440.6877181312954
 10
-810.6163698881752
 20
-440.7021361675287
 10
-810.5690696620541
 20
-440.7170306600978
 10
-810.5220340022029
 20
-440.7324016090028
 10
-810.475262908621
 20
-440.7482490142436
 10
-810.4287563813091
 20
-440.7645728758201
 10
-810.3825144202662
 20
-440.7813731937324
 10
-810.3365370254934
 20
-440.7986499679807
 10
-810.2908241969899
 20
-440.8164031985648
 10
-810.2453759347561
 20
-440.8346328854844
 10
-810.2001922387918
 20
-440.8533390287399
 10
-810.1552731090972
 20
-440.8725216283314
 10
-810.1106185456719
 20
-440.8921806842585
 10
-810.0662285485165
 20
-440.9123161965216
 10
-810.0221031176303
 20
-440.9329281651205
 10
-809.978242253014
 20
-440.9540165900551
 10
-809.9346459546671
 20
-440.9755814713255
 10
-809.8913142225901
 20
-440.9976228089316
 10
-809.8482470567823
 20
-441.0201406028737
 10
-809.8054444572444
 20
-441.0431348531516
 10
-809.7629064239756
 20
-441.0666055597651
 10
-809.7206329569768
 20
-441.0905527227146
 10
-809.6786240562476
 20
-441.114976342
 10
-809.6368797217875
 20
-441.139876417621
 10
-809.5953999535975
 20
-441.1652529495778
 10
-809.5541847516766
 20
-441.1911059378704
 10
-809.5132341160256
 20
-441.2174353824989
 10
-809.4725480466443
 20
-441.2442412834632
 10
-809.4321265435322
 20
-441.2715236407634
 10
-809.3919696066899
 20
-441.2992824543992
 10
-809.352077236117
 20
-441.3275177243709
 10
-809.3124494318139
 20
-441.3562294506784
 10
-809.27308619378
 20
-441.3854176333217
 10
-809.2339875220162
 20
-441.4150822723009
 10
-809.1951534165216
 20
-441.4452233676158
 10
-809.1565838772966
 20
-441.4758409192666
 10
-809.1182789043413
 20
-441.5069349272529
 10
-809.0802384976559
 20
-441.5385053915754
 10
-809.0425420123263
 20
-441.5704857254095
 10
-809.0052688034397
 20
-441.6028093419316
 10
-808.9684188709959
 20
-441.6354762411416
 10
-808.9319922149948
 20
-441.6684864230396
 10
-808.8959888354372
 20
-441.7018398876255
 10
-808.8604087323219
 20
-441.7355366348992
 10
-808.8252519056499
 20
-441.7695766648608
 10
-808.7905183554205
 20
-441.8039599775105
 10
-808.756208081634
 20
-441.8386865728479
 10
-808.7223210842903
 20
-441.8737564508734
 10
-808.6888573633897
 20
-441.9091696115867
 10
-808.6558169189322
 20
-441.944926054988
 10
-808.6231997509171
 20
-441.981025781077
 10
-808.5910058593455
 20
-442.0174687898542
 10
-808.5592352442162
 20
-442.0542550813191
 10
-808.5278879055303
 20
-442.091384655472
 10
-808.496963843287
 20
-442.1288575123127
 10
-808.4664630574865
 20
-442.1666736518417
 10
-808.436385548129
 20
-442.2048330740581
 10
-808.4067313152145
 20
-442.2433357789627
 10
-808.3775003587426
 20
-442.2821817665552
 10
-808.3486926787138
 20
-442.3213710368354
 10
-808.3203082751278
 20
-442.3609035898038
 10
-808.2923471479848
 20
-442.4007794254599
 10
-808.2648092972847
 20
-442.4409985438041
 10
-808.2376947230272
 20
-442.4815609448361
 10
-808.2110034252126
 20
-442.522466628556
 10
-808.1847354038414
 20
-442.5637155949639
 10
-808.1588906589129
 20
-442.6053078440597
 10
-808.1334691904269
 20
-442.6472433758434
 10
-808.1084709983844
 20
-442.689522190315
 10
-808.0838960827842
 20
-442.7321442874745
 10
-808.0597444436273
 20
-442.775109667322
 10
-808.0360160809131
 20
-442.8184183298574
 10
-808.0127109946415
 20
-442.8620702750807
 10
-807.9898291848133
 20
-442.9060655029917
 10
-807.9673706514279
 20
-442.9504040135908
 10
-807.9453353944851
 20
-442.9950858068777
 10
-807.9237234139855
 20
-443.0401108828528
 10
-807.9025347099284
 20
-443.0854792415156
 10
-807.8817692823145
 20
-443.1311908828663
 10
-807.8614271311435
 20
-443.1772458069048
 10
-807.8415082564152
 20
-443.2236440136315
 10
-807.8220126581298
 20
-443.270385503046
 10
-807.8029403362874
 20
-443.3174702751483
 10
-807.7842912908881
 20
-443.3648983299386
 10
-807.7660655219313
 20
-443.4126696674168
 10
-807.7482630294175
 20
-443.4607842875831
 10
-807.7308838133468
 20
-443.5092421904371
 10
-807.7139278737186
 20
-443.558043375979
 10
-807.6973952105337
 20
-443.6071878442088
 10
-807.6812858237914
 20
-443.6566755951266
 10
-807.665599713492
 20
-443.7065066287323
 10
-807.6503368796359
 20
-443.756680945026
 10
-807.6354973222223
 20
-443.8071985440075
 10
-807.6210810412517
 20
-443.8580594256769
 10
-807.6070880367238
 20
-443.9092635900344
 10
-807.5935183086391
 20
-443.9608110370796
 10
-807.5803718569972
 20
-444.0127017668127
 10
-807.5676486817981
 20
-444.0649357792337
 10
-807.5553487830418
 20
-444.1175130743427
 10
-807.5434721607289
 20
-444.1704336521396
 10
-807.5320188148582
 20
-444.2236975126245
 10
-807.5209887454306
 20
-444.2773046557972
 10
-807.5104045992423
 20
-444.3311425036744
 10
-807.5002890230889
 20
-444.3850984782727
 10
-807.4906420169707
 20
-444.4391725795919
 10
-807.4814635808875
 20
-444.4933648076322
 10
-807.4727537148396
 20
-444.5476751623936
 10
-807.4645124188268
 20
-444.6021036438759
 10
-807.4567396928493
 20
-444.6566502520791
 10
-807.449435536907
 20
-444.7113149870036
 10
-807.4425999509999
 20
-444.7660978486489
 10
-807.4362329351279
 20
-444.8209988370154
 10
-807.4303344892907
 20
-444.8760179521028
 10
-807.4249046134891
 20
-444.9311551939111
 10
-807.4199433077222
 20
-444.9864105624406
 10
-807.4154505719908
 20
-445.0417840576911
 10
-807.4114264062943
 20
-445.0972756796625
 10
-807.4078708106332
 20
-445.1528854283552
 10
-807.4047837850073
 20
-445.2086133037687
 10
-807.4021653294163
 20
-445.2644593059032
 10
-807.4000154438605
 20
-445.3204234347587
 10
-807.3983341283401
 20
-445.3765056903353
 10
-807.3971213828547
 20
-445.4327060726329
 10
-807.3963772074044
 20
-445.4890245816517
 10
-807.3961016019891
 20
-445.5454612173912
 10
-807.3962945666094
 20
-445.6020159798519
 10
-807.3969561012646
 20
-445.6586888690337
 10
-807.3980862059549
 20
-445.7154798849363
 10
-807.3996848806805
 20
-445.7723890275602
 10
-807.4017521254413
 20
-445.8294162969049
 10
-807.4042879402369
 20
-445.8865616929706
 10
-807.407292325068
 20
-445.9438252157576
 10
-807.4107652799339
 20
-446.0012068652652
 10
-807.4147068048356
 20
-446.0587066414942
 10
-807.4191168997719
 20
-446.116324544444
 10
-807.4239955647435
 20
-446.1740605741148
 10
-807.4293427997503
 20
-446.2319147305069
 10
-807.4351586047921
 20
-446.2898870136198
 10
-807.4414429798695
 20
-446.3479774234537
 10
-807.4481959249816
 20
-446.4061859600088
 10
-807.4554174401288
 20
-446.4645126232847
 10
-807.4631075253114
 20
-446.5229574132816
 10
-807.4712661805291
 20
-446.5815203299997
 10
-807.479893405782
 20
-446.6402013734387
 10
-807.48898920107
 20
-446.6990005435987
 10
-807.4985535663932
 20
-446.75791784048
 10
-807.5085865017515
 20
-446.816953264082
 10
-807.5190880071449
 20
-446.8761068144051
 10
-807.5300580825736
 20
-446.9353784914492
 10
-807.5414967280373
 20
-446.9947682952144
 10
-807.5534039435362
 20
-447.0542762257005
 10
-807.5657797290704
 20
-447.1139022829078
 10
-807.5786240846396
 20
-447.173646466836
 10
-807.5919370102441
 20
-447.2335087774852
 10
-807.6057185058836
 20
-447.2934892148556
 10
-807.6199685715584
 20
-447.3535877789468
 10
-807.6346872072683
 20
-447.4138044697592
 10
-807.6498744130132
 20
-447.4741392872925
 10
-807.6655301887935
 20
-447.5345922315468
 10
-807.681654534609
 20
-447.5951633025222
 10
-807.6982474504594
 20
-447.6558525002186
 10
-807.715308936345
 20
-447.716659824636
 10
-807.7328389922657
 20
-447.7775852757745
 10
-807.7508376182217
 20
-447.838628853634
 10
-807.7693048142126
 20
-447.8997905582144
 10
-807.7882405802389
 20
-447.9610703895158
 10
-807.8076047866154
 20
-448.0223399435752
 10
-807.8273573036565
 20
-448.0834708164292
 10
-807.8474981313625
 20
-448.1444630080777
 10
-807.8680272697337
 20
-448.2053165185209
 10
-807.8889447187696
 20
-448.2660313477587
 10
-807.9102504784703
 20
-448.3266074957911
 10
-807.931944548836
 20
-448.3870449626182
 10
-807.9540269298668
 20
-448.44734374824
 10
-807.9764976215622
 20
-448.5075038526561
 10
-807.9993566239224
 20
-448.5675252758672
 10
-808.0226039369479
 20
-448.6274080178728
 10
-808.0462395606382
 20
-448.687152078673
 10
-808.0702634949933
 20
-448.7467574582677
 10
-808.0946757400132
 20
-448.8062241566572
 10
-808.1194762956984
 20
-448.8655521738412
 10
-808.1446651620481
 20
-448.92474150982
 10
-808.1702423390629
 20
-448.9837921645933
 10
-808.1962078267423
 20
-449.0427041381612
 10
-808.222561625087
 20
-449.1014774305236
 10
-808.2493037340965
 20
-449.1601120416809
 10
-808.2764341537709
 20
-449.2186079716327
 10
-808.3039528841101
 20
-449.2769652203791
 10
-808.3318599251143
 20
-449.3351837879203
 10
-808.3601552767834
 20
-449.393263674256
 10
-808.3888389391175
 20
-449.4512048793863
 10
-808.4179109121164
 20
-449.5090074033111
 10
-808.4473711957802
 20
-449.5666712460308
 10
-808.4772197901088
 20
-449.624196407545
 10
-808.5074566951025
 20
-449.6815828878538
 10
-808.5380819107609
 20
-449.7388306869571
 10
-808.5690954370843
 20
-449.7959398048553
 10
-808.6004972740726
 20
-449.8529102415479
 10
-808.6322874217261
 20
-449.9097419970352
 10
-808.6644658800441
 20
-449.9664350713172
 10
-808.697032649027
 20
-450.0229894643936
 10
-808.7299877286749
 20
-450.0794051762648
 10
-808.7633311189879
 20
-450.1356822069308
 10
-808.7970628199656
 20
-450.1918205563911
 10
-808.8311828316083
 20
-450.2478202246462
 10
-808.8656911539157
 20
-450.3036812116958
 10
-808.9005877868883
 20
-450.3594035175402
 10
-808.9358727305256
 20
-450.4149871421792
 10
-808.9715459848276
 20
-450.4704320856127
 10
-809.007607549795
 20
-450.5257383478409
 10
-809.0440574254269
 20
-450.5809059288636
 10
-809.0808956117239
 20
-450.6359348286811
 10
-809.1181221086857
 20
-450.6908250472931
 10
-809.1557369163124
 20
-450.7455765846999
 10
-809.1937400346045
 20
-450.8001894409011
 10
-809.2321314635608
 20
-450.8546636158972
 10
-809.2709112031823
 20
-450.9089991096876
 10
-809.3100792534686
 20
-450.9631959222728
 10
-809.3496356144202
 20
-451.0172540536527
 10
-809.3895802860362
 20
-451.0711735038271
 10
-809.4299132683175
 20
-451.1249542727961
 10
-809.4706345612634
 20
-451.1785963605599
 10
-809.5117441648742
 20
-451.2320997671181
 10
-809.5532420791501
 20
-451.2854644924711
 10
-809.5951283040909
 20
-451.3386905366186
 10
-809.6374028396965
 20
-451.3917778995608
 10
-809.6800656859668
 20
-451.4447265812976
 10
-809.7231168429026
 20
-451.497536581829
 10
-809.7665563105028
 20
-451.5502079011551
 10
-809.8103840887681
 20
-451.6027405392758
 10
-809.8545080242484
 20
-451.6550246719863
 10
-809.8988359634946
 20
-451.7069504750822
 10
-809.9433679065061
 20
-451.7585179485632
 10
-809.9881038532833
 20
-451.8097270924295
 10
-810.0330438038263
 20
-451.8605779066809
 10
-810.0781877581345
 20
-451.9110703913177
 10
-810.1235357162085
 20
-451.9612045463397
 10
-810.1690876780484
 20
-452.0109803717466
 10
-810.2148436436532
 20
-452.0603978675389
 10
-810.2608036130241
 20
-452.1094570337165
 10
-810.3069675861604
 20
-452.1581578702792
 10
-810.3533355630622
 20
-452.2065003772272
 10
-810.3999075437297
 20
-452.2544845545604
 10
-810.4466835281625
 20
-452.3021104022789
 10
-810.4936635163612
 20
-452.3493779203825
 10
-810.5408475083255
 20
-452.3962871088712
 10
-810.5882355040552
 20
-452.4428379677453
 10
-810.6358275035505
 20
-452.4890304970047
 10
-810.6836235068115
 20
-452.5348646966491
 10
-810.731623513838
 20
-452.5803405666788
 10
-810.7798275246301
 20
-452.6254581070936
 10
-810.8282355391876
 20
-452.6702173178937
 10
-810.8768475575107
 20
-452.7146181990792
 10
-810.9256635795997
 20
-452.7586607506496
 10
-810.974683605454
 20
-452.8023449726055
 10
-811.0239076350739
 20
-452.8456708649463
 10
-811.0733356684594
 20
-452.8886384276726
 10
-811.1229677056105
 20
-452.931247660784
 10
-811.1728037465274
 20
-452.9734985642806
 10
-811.2228437912097
 20
-453.0153911381625
 10
-811.2730878396575
 20
-453.0569253824296
 10
-811.3235358918711
 20
-453.0981012970818
 10
-811.3741879478501
 20
-453.1389188821193
 10
-811.4250440075949
 20
-453.1793781375419
 10
-811.476104071105
 20
-453.2194790633501
 10
-811.5273681383808
 20
-453.2592216595431
 10
-811.5788362094223
 20
-453.2986059261215
 10
-811.6305082842291
 20
-453.3376318630851
 10
-811.6823843628017
 20
-453.3762994704338
 10
-811.7344644451394
 20
-453.4146087481679
 10
-811.7867485312432
 20
-453.4525596962871
 10
-811.8392366211125
 20
-453.4901523147914
 10
-811.8919287147473
 20
-453.5273866036812
 10
-811.9448248121477
 20
-453.5642625629559
 10
-811.9979249133137
 20
-453.600780192616
 10
-812.0512290182453
 20
-453.6369394926612
 10
-812.1047371269424
 20
-453.6727404630918
 10
-812.1584492394051
 20
-453.7081831039076
 10
-812.2123653556336
 20
-453.7432674151085
 10
-812.2664854756274
 20
-453.7779933966946
 10
-812.3208095993868
 20
-453.812361048666
 10
-812.3753377269119
 20
-453.8463703710227
 10
-812.4300698582025
 20
-453.8800213637643
 10
-812.4850059932589
 20
-453.9133140268914
 10
-812.5401461320805
 20
-453.9462483604036
 10
-812.5954902746677
 20
-453.9788243643011
 10
-812.6510384210208
 20
-454.0110420385837
 10
-812.7067905711394
 20
-454.0429013832516
 10
-812.7627467250237
 20
-454.0744023983046
 10
-812.8189068826731
 20
-454.1055450837429
 10
-812.8752710440885
 20
-454.1363294395664
 10
-812.9318392092692
 20
-454.1667554657752
 10
-812.9886113782156
 20
-454.1968231623692
 10
-813.0455875509277
 20
-454.2265325293484
 10
-813.1026482426335
 20
-454.2558217495734
 10
-813.1596739685612
 20
-454.2846290059052
 10
-813.2166647287109
 20
-454.3129542983439
 10
-813.2736205230829
 20
-454.3407976268891
 10
-813.3305413516765
 20
-454.3681589915412
 10
-813.3874272144925
 20
-454.3950383922999
 10
-813.4442781115307
 20
-454.4214358291652
 10
-813.5010940427903
 20
-454.4473513021373
 10
-813.5578750082723
 20
-454.4727848112162
 10
-813.6146210079761
 20
-454.4977363564016
 10
-813.6713320419023
 20
-454.522205937694
 10
-813.7280081100501
 20
-454.5461935550929
 10
-813.7846492124202
 20
-454.5696992085986
 10
-813.8412553490121
 20
-454.5927228982109
 10
-813.8978265198259
 20
-454.61526462393
 10
-813.9543627248622
 20
-454.6373243857559
 10
-814.0108639641203
 20
-454.6589021836882
 10
-814.0673302376004
 20
-454.6799980177275
 10
-814.1237615453023
 20
-454.7006118878735
 10
-814.1801578872264
 20
-454.720743794126
 10
-814.2365192633727
 20
-454.7403937364855
 10
-814.2928456737406
 20
-454.7595617149514
 10
-814.3491371183309
 20
-454.7782477295242
 10
-814.4053935971429
 20
-454.7964517802038
 10
-814.4616151101772
 20
-454.8141738669899
 10
-814.5178016574334
 20
-454.8314139898828
 10
-814.5739532389116
 20
-454.8481721488824
 10
-814.6300698546118
 20
-454.8644483439887
 10
-814.686151504534
 20
-454.8802425752017
 10
-814.7421981886783
 20
-454.8955548425216
 10
-814.7982099070445
 20
-454.910385145948
 10
-814.854186659633
 20
-454.9247334854812
 10
-814.9101284464432
 20
-454.9385998611212
 10
-814.9660352674754
 20
-454.9519842728677
 10
-815.0219071227297
 20
-454.9648867207211
 10
-815.0777440122061
 20
-454.9773072046811
 10
-815.1335459359044
 20
-454.9892457247478
 10
-815.1893128938251
 20
-455.0007022809213
 10
-815.2450448859672
 20
-455.0116768732014
 10
-815.3007419123316
 20
-455.0221695015882
 10
-815.3564039729182
 20
-455.032180166082
 10
-815.4120310677264
 20
-455.0417088666821
 10
-815.4676231967568
 20
-455.0507556033892
 10
-815.5231803600093
 20
-455.0593203762028
 10
-815.578702557484
 20
-455.0674031851233
 10
-815.6341897891804
 20
-455.0750040301505
 10
-815.6896420550989
 20
-455.0821229112843
 10
-815.7450593552395
 20
-455.0887598285249
 10
-815.8004416896019
 20
-455.0949147818721
 10
-815.8557890581864
 20
-455.1005877713262
 10
-815.911101460993
 20
-455.1057787968868
 10
-815.9663788980218
 20
-455.1104878585541
 10
-816.021621369272
 20
-455.1147149563282
 10
-816.0768288747446
 20
-455.118460090209
 10
-816.1320014144394
 20
-455.1217232601966
 10
-816.1871389883561
 20
-455.1245044662908
 10
-816.2422415964947
 20
-455.126803708492
 10
-816.2973092388554
 20
-455.1286209867996
 10
-816.352341915438
 20
-455.1299563012138
 10
-816.4073396262427
 20
-455.1308096517349
 10
-816.4623023712696
 20
-455.1311810383627
 10
-816.5172301505181
 20
-455.1310704610972
 10
-816.5721229639892
 20
-455.1304779199385
 10
-816.6269808116819
 20
-455.1294034148863
 10
-816.6816888933507
 20
-455.1278496997197
 10
-816.7361324087501
 20
-455.1258195282174
 10
-816.79031135788
 20
-455.1233129003791
 10
-816.84422574074
 20
-455.1203298162052
 10
-816.8978755573309
 20
-455.1168702756953
 10
-816.9512608076519
 20
-455.1129342788497
 10
-817.0043814917036
 20
-455.1085218256682
 10
-817.0572376094854
 20
-455.1036329161511
 10
-817.1098291609979
 20
-455.098267550298
 10
-817.1621561462407
 20
-455.092425728109
 10
-817.2142185652141
 20
-455.0861074495845
 10
-817.2660164179177
 20
-455.0793127147239
 10
-817.3175497043517
 20
-455.0720415235276
 10
-817.3688184245165
 20
-455.0642938759956
 10
-817.4198225784113
 20
-455.0560697721278
 10
-817.4705621660367
 20
-455.0473692119239
 10
-817.5210371873923
 20
-455.0381921953845
 10
-817.5712476424784
 20
-455.0285387225091
 10
-817.6211935312952
 20
-455.018408793298
 10
-817.6708748538423
 20
-455.0078024077511
 10
-817.7202916101196
 20
-454.9967195658685
 10
-817.7694438001275
 20
-454.98516026765
 10
-817.8183314238658
 20
-454.9731245130956
 10
-817.8669544813347
 20
-454.9606123022057
 10
-817.9153129725337
 20
-454.9476236349796
 10
-817.9634068974634
 20
-454.9341585114178
 10
-818.0112362561235
 20
-454.9202169315203
 10
-818.058801048514
 20
-454.9057988952871
 10
-818.1061012746349
 20
-454.8909044027178
 10
-818.153136934486
 20
-454.8755334538128
 10
-818.1999080280679
 20
-454.8596860485721
 10
-818.2464145553799
 20
-454.8433621869956
 10
-818.2926565164224
 20
-454.8265618690831
 10
-818.3386339111955
 20
-454.8092850948351
 10
-818.3843467396989
 20
-454.7915318642511
 10
-818.4297950019329
 20
-454.7733021773312
 10
-818.4749786978972
 20
-454.7545960340756
 10
-818.519897827592
 20
-454.7354134344842
 10
-818.5645523910169
 20
-454.7157543785571
 10
-818.6089423881723
 20
-454.6956188662941
 10
-818.6530678190585
 20
-454.6750068976952
 10
-818.6969286836749
 20
-454.6539184727607
 10
-818.7405249820217
 20
-454.6323535914902
 10
-818.7838567140987
 20
-454.6103122538839
 10
-818.8269238799064
 20
-454.5877944599419
 10
-818.8697264794447
 20
-454.5648002096641
 10
-818.9122645127133
 20
-454.5413295030505
 10
-818.9545379797122
 20
-454.5173823401011
 10
-818.9965468804414
 20
-454.4929587208158
 10
-819.0382912149013
 20
-454.4680586451947
 10
-819.0797709830913
 20
-454.4426821132377
 10
-819.120986185012
 20
-454.4168291249452
 10
-819.1619368206632
 20
-454.3904996803168
 10
-819.2026228900447
 20
-454.3636937793524
 10
-819.2430443931565
 20
-454.3364114220524
 10
-819.2832013299991
 20
-454.3086526084165
 10
-819.3230937005719
 20
-454.2804173384448
 10
-819.3627215048749
 20
-454.2517056121373
 10
-819.4020847429086
 20
-454.222517429494
 10
-819.4411834146727
 20
-454.1928527905149
 10
-819.4800175201674
 20
-454.1627116951999
 10
-819.5185870593924
 20
-454.1320941435492
 10
-819.5568920323475
 20
-454.1010001355625
 10
-819.5949324390332
 20
-454.0694296712404
 10
-819.6326289243625
 20
-454.0374493374061
 10
-819.6699021332491
 20
-454.005125720884
 10
-819.7067520656931
 20
-453.972458821674
 10
-819.7431787216942
 20
-453.939448639776
 10
-819.7791821012518
 20
-453.9060951751903
 10
-819.814762204367
 20
-453.8723984279164
 10
-819.8499190310393
 20
-453.8383583979547
 10
-819.8846525812685
 20
-453.8039750853052
 10
-819.9189628550549
 20
-453.7692484899676
 10
-819.9528498523983
 20
-453.7341786119423
 10
-819.9863135732989
 20
-453.6987654512289
 10
-820.0193540177567
 20
-453.6630090078277
 10
-820.0519711857714
 20
-453.6269092817385
 10
-820.0841650773433
 20
-453.5904662729615
 10
-820.1159356924726
 20
-453.5536799814964
 10
-820.1472830311587
 20
-453.5165504073437
 10
-820.1782070934019
 20
-453.4790775505028
 10
-820.2087078792024
 20
-453.4412614109742
 10
-820.2387853885598
 20
-453.4031019887576
 10
-820.2684396214745
 20
-453.3645992838528
 10
-820.2976705779462
 20
-453.3257532962605
 10
-820.3264782579751
 20
-453.2865640259802
 10
-820.354862661561
 20
-453.2470314730119
 10
-820.3828237887041
 20
-453.2071556373556
 10
-820.4103616394045
 20
-453.1669365190115
 10
-820.4374762136618
 20
-453.1263741179794
 10
-820.4641675114761
 20
-453.0854684342596
 10
-820.4904355328476
 20
-453.0442194678516
 10
-820.5162802777763
 20
-453.0026272187559
 10
-820.541701746262
 20
-452.9606916869722
 10
-820.5666999383048
 20
-452.9184128725007
 10
-820.5912748539047
 20
-452.8757907753411
 10
-820.6154264930617
 20
-452.8328253954937
 10
-820.639154855776
 20
-452.7895167329583
 10
-820.6624599420475
 20
-452.7458647877351
 10
-820.6853417518756
 20
-452.7018695598239
 10
-820.7078002852611
 20
-452.6575310492249
 10
-820.729835542204
 20
-452.6128492559378
 10
-820.7514475227036
 20
-452.5678241799628
 10
-820.7726362267603
 20
-452.5224558213
 10
-820.7934016543745
 20
-452.4767441799493
 10
-820.8137438055455
 20
-452.4306892559108
 10
-820.8336626802736
 20
-452.3842910491842
 10
-820.8531582785589
 20
-452.3375495597697
 10
-820.8722306004014
 20
-452.2904647876673
 10
-820.8908796458009
 20
-452.243036732877
 10
-820.9091054147577
 20
-452.1952653953988
 10
-820.9269079072715
 20
-452.1471507752328
 10
-820.9442871233422
 20
-452.0986928723785
 10
-820.9612430629702
 20
-452.0498916868366
 10
-820.9777757261552
 20
-452.0007472186068
 10
-820.9938851128976
 20
-451.951259467689
 10
-821.0095712231964
 20
-451.9014284340833
 10
-821.0248340570531
 20
-451.8512541177896
 10
-821.0396736144666
 20
-451.8007365188082
 10
-821.0540898954374
 20
-451.7498756371388
 10
-821.0680828999651
 20
-451.6986714727813
 10
-821.0816526280497
 20
-451.6471240257361
 10
-821.0947990796919
 20
-451.595233296003
 10
-821.107522254891
 20
-451.5429992835819
 10
-821.119822153647
 20
-451.4904219884729
 10
-821.1316987759603
 20
-451.4375014106759
 10
-821.1431521218308
 20
-451.3842375501911
 10
-821.1541821912582
 20
-451.3306304070183
 10
-821.1647663374467
 20
-451.2767925591411
 10
-821.1748819135999
 20
-451.2228365845428
 10
-821.1845289197183
 20
-451.1687624832236
 10
-821.1937073558015
 20
-451.1145702551834
 10
-821.2024172218493
 20
-451.0602599004222
 10
-821.210658517862
 20
-451.0058314189399
 10
-821.2184312438395
 20
-450.9512848107364
 10
-821.2257353997822
 20
-450.8966200758122
 10
-821.2325709856893
 20
-450.8418372141668
 10
-821.2389380015611
 20
-450.7869362258004
 10
-821.2448364473981
 20
-450.731917110713
 10
-821.2502663232001
 20
-450.6767798689044
 10
-821.2552276289667
 20
-450.6215245003751
 10
-821.2597203646982
 20
-450.5661510051246
 10
-821.2637445303943
 20
-450.5106593831532
 10
-821.2673001260556
 20
-450.4550496344605
 10
-821.2703871516819
 20
-450.3993217590471
 10
-821.2730056072727
 20
-450.3434757569125
 10
-821.2751554928285
 20
-450.2875116280568
 10
-821.2768368083489
 20
-450.2314293724802
 10
-821.2780495538341
 20
-450.1752289901826
 10
-821.2787937292844
 20
-450.1189104811641
 10
-821.2790693346995
 20
-450.0624738454243
 10
-821.2788763700796
 20
-450.0059190829637
 10
-821.2782148354243
 20
-449.9492461937819
 10
-821.2770847307341
 20
-449.8924551778793
 10
-821.2754860560085
 20
-449.8355460352557
 10
-821.2734188112479
 20
-449.7785187659108
 10
-821.2708829964519
 20
-449.7213733698449
 10
-821.267878611621
 20
-449.6641098470582
 10
-821.2644056567551
 20
-449.6067281975503
 10
-821.2604641318536
 20
-449.5492284213215
 10
-821.2560540369171
 20
-449.4916105183716
 10
-821.2511753719457
 20
-449.4338744887008
 10
-821.2458281369389
 20
-449.3760203323088
 10
-821.2400123318969
 20
-449.3180480491959
 10
-821.2337279568199
 20
-449.259957639362
 10
-821.2269750117075
 20
-449.2017491028071
 10
-821.2197534965602
 20
-449.1434224395311
 10
-821.2120634113775
 20
-449.084977649534
 10
-821.2039047561599
 20
-449.026414732816
 10
-821.195277530907
 20
-448.9677336893769
 10
-821.186181735619
 20
-448.9089345192168
 10
-821.1766173702958
 20
-448.850017222336
 10
-821.1665844349376
 20
-448.7909817987337
 10
-821.1560829295439
 20
-448.7318282484105
 10
-821.1451128541154
 20
-448.6725565713665
 10
-821.1336742086514
 20
-448.6131667676012
 10
-821.1217669931526
 20
-448.5536588371151
 10
-821.1093912076186
 20
-448.4940327799079
 10
-821.0965468520495
 20
-448.4342885959796
 10
-821.0832339264451
 20
-448.3744262853303
 10
-821.0694524308054
 20
-448.3144458479602
 10
-821.0552023651308
 20
-448.2543472838687
 10
-821.0404837294207
 20
-448.1941305930566
 10
-821.0252965236758
 20
-448.1337957755232
 10
-821.0096407478957
 20
-448.0733428312688
 10
-820.9935164020803
 20
-448.0127717602934
 10
-820.9769234862299
 20
-447.9520825625971
 10
-820.9598620003443
 20
-447.8912752381797
 10
-820.9423319444237
 20
-447.8303497870412
 10
-820.9243333184675
 20
-447.7693062091817
 10
-820.9058661224764
 20
-447.7081445046013
 10
-820.8869303564501
 20
-447.6468646732997
 10
-820.8675661500738
 20
-447.5855951192404
 10
-820.8478136330327
 20
-447.5244642463866
 10
-820.8276728053265
 20
-447.4634720547379
 10
-820.8071436669555
 20
-447.4026185442949
 10
-820.7862262179196
 20
-447.3419037150569
 10
-820.7649204582189
 20
-447.2813275670246
 10
-820.743226387853
 20
-447.2208901001975
 10
-820.7211440068226
 20
-447.1605913145758
 10
-820.698673315127
 20
-447.1004312101594
 10
-820.6758143127665
 20
-447.0404097869485
 10
-820.6525669997411
 20
-446.9805270449429
 10
-820.628931376051
 20
-446.9207829841428
 10
-820.6049074416959
 20
-446.861177604548
 10
-820.5804951966754
 20
-446.8017109061585
 10
-820.5556946409908
 20
-446.7423828889743
 10
-820.5305057746409
 20
-446.6831935529957
 10
-820.5049285976262
 20
-446.6241428982224
 10
-820.4789631099464
 20
-446.5652309246545
 10
-820.4526093116019
 20
-446.506457632292
 10
-820.4258672025925
 20
-446.4478230211348
 10
-820.398736782918
 20
-446.3893270911828
 10
-820.3712180525787
 20
-446.3309698424365
 10
-820.3433110115746
 20
-446.2727512748954
 10
-820.3150156599058
 20
-446.2146713885597
 10
-820.2863319975715
 20
-446.1567301834294
 10
-820.2572600245726
 20
-446.0989276595044
 10
-820.2277997409089
 20
-446.0412638167849
 10
-820.1979511465802
 20
-445.9837386552708
 10
-820.1677142415865
 20
-445.926352174962
 10
-820.1370890259282
 20
-445.8691043758585
 10
-820.1060754996047
 20
-445.8119952579605
 10
-820.0746736626165
 20
-445.7550248212678
 10
-820.0428835149633
 20
-445.6981930657804
 10
-820.0107050566451
 20
-445.6414999914986
 10
-819.9781382876622
 20
-445.5849455984219
 10
-819.9451832080141
 20
-445.5285298865508
 10
-819.9118398177011
 20
-445.4722528558849
 10
-819.8781081167235
 20
-445.4161145064246
 10
-819.8439881050811
 20
-445.3601148381694
 10
-819.8094797827733
 20
-445.3042538511198
 10
-819.7745831498011
 20
-445.2485315452754
 10
-819.7392982061636
 20
-445.1929479206365
 10
-819.7036249518616
 20
-445.137502977203
 10
-819.6675633868942
 20
-445.0821967149748
 10
-819.6311135112619
 20
-445.027029133952
 10
-819.5942753249651
 20
-444.9720002341345
 10
-819.5570488280031
 20
-444.9171100155225
 10
-819.5194340203764
 20
-444.8623584781159
 10
-819.4814309020847
 20
-444.8077456219145
 10
-819.4430394731281
 20
-444.7532714469185
 10
-819.4042597335068
 20
-444.6989359531279
 10
-819.3650916832201
 20
-444.6447391405428
 10
-819.3255353222689
 20
-444.5906810091631
 10
-819.2855906506528
 20
-444.5367615589885
 10
-819.2452576683718
 20
-444.4829807900195
 10
-819.2045363754257
 20
-444.4293387022559
 10
-819.1634267718148
 20
-444.3758352956974
 10
-819.1219288575389
 20
-444.3224705703445
 10
-819.080042632598
 20
-444.2692445261968
 10
-819.0377680969927
 20
-444.2161571632548
 10
-818.9951052507222
 20
-444.163208481518
 10
-818.9520540937866
 20
-444.1103984809866
 10
-818.9086146261862
 20
-444.0577271616604
 10
-818.8647868479211
 20
-444.0051945235398
 10
-818.8206629124405
 20
-443.9529103908292
 10
-818.7763349731945
 20
-443.9009845877335
 10
-818.7318030301828
 20
-443.8494171142524
 10
-818.6870670834055
 20
-443.7982079703862
 10
-818.6421271328626
 20
-443.7473571561347
 10
-818.5969831785543
 20
-443.696864671498
 10
-818.5516352204803
 20
-443.6467305164762
 10
-818.506083258641
 20
-443.596954691069
 10
-818.4603272930358
 20
-443.5475371952767
 10
-818.4143673236651
 20
-443.4984780290991
 10
-818.3682033505286
 20
-443.4497771925363
 10
-818.3218353736268
 20
-443.4014346855885
 10
-818.2752633929593
 20
-443.3534505082552
 10
-818.2284874085267
 20
-443.3058246605368
 10
-818.1815074203282
 20
-443.2585571424332
 10
-818.1343234283637
 20
-443.2116479539444
 10
-818.0869354326338
 20
-443.1650970950703
 10
-818.0393434331387
 20
-443.1189045658111
 10
-817.9915474298777
 20
-443.0730703661665
 10
-817.9435474228512
 20
-443.0275944961369
 10
-817.8953434120593
 20
-442.982476955722
 10
-817.8469353975014
 20
-442.9377177449219
 10
-817.7983233791783
 20
-442.8933168637366
 10
-817.7495073570895
 20
-442.8492743121659
 10
-817.7004873312352
 20
-442.8055900902102
 10
-817.651263301615
 20
-442.7622641978692
 10
-817.6018352682294
 20
-442.7192966351431
 10
-817.5522032310782
 20
-442.6766874020317
 10
-817.5023671901614
 20
-442.634436498535
 10
-817.4523271454795
 20
-442.5925439246531
 10
-817.4020830970315
 20
-442.551009680386
 10
-817.3516350448178
 20
-442.5098337657337
 10
-817.3009829888389
 20
-442.4690161806964
 10
-817.2501269290943
 20
-442.4285569252736
 10
-817.1990668655842
 20
-442.3884559994657
 10
-817.1478027983086
 20
-442.3487134032725
 10
-817.0963347272671
 20
-442.3093291366941
 10
-817.0446626524601
 20
-442.2703031997305
 10
-816.9927865738873
 20
-442.2316355923817
 10
-816.9407064915496
 20
-442.1933263146478
 10
-816.8884224054458
 20
-442.1553753665286
 10
-816.8359343155763
 20
-442.1177827480242
 10
-816.7832422219417
 20
-442.0805484591346
 10
-816.7303461245412
 20
-442.0436724998596
 10
-816.6772460233753
 20
-442.0071548701996
 10
-816.6239419184435
 20
-441.9709955701543
 10
-816.5704338097466
 20
-441.9351945997239
 10
-816.5167216972839
 20
-441.8997519589082
 10
-816.4628055810554
 20
-441.8646676477072
 10
-816.4086854610614
 20
-441.8299416661209
 10
-816.354361337302
 20
-441.7955740141496
 10
-816.2998332097769
 20
-441.7615646917931
 10
-816.2451010784865
 20
-441.7279136990512
 10
-816.1901649434302
 20
-441.6946210359243
 10
-816.1350248046083
 20
-441.661686702412
 10
-816.0796806620211
 20
-441.6291106985146
 10
-816.0241325156681
 20
-441.596893024232
 10
-815.9683803655495
 20
-441.565033679564
 10
-815.9124242116655
 20
-441.533532664511
 10
-815.8562640540157
 20
-441.5023899790727
 10
-815.7998998926004
 20
-441.4716056232491
 10
-815.7433317274199
 20
-441.4411795970405
 10
-815.6865595584735
 20
-441.4111119004465
 10
-815.6295833857615
 20
-441.3814025334674
 10
-815.5725226940555
 20
-441.3521133132422
 10
-815.5154969681277
 20
-441.3233060569104
 10
-815.458506207978
 20
-441.2949807644718
 10
-815.401550413606
 20
-441.2671374359265
 10
-815.3446295850123
 20
-441.2397760712745
 10
-815.2877437221965
 20
-441.2128966705158
 10
-815.2308928251583
 20
-441.1864992336504
 10
-815.1740768938989
 20
-441.1605837606783
 10
-815.1172959284165
 20
-441.1351502515996
 10
-815.0605499287127
 20
-441.1101987064141
 10
-815.0038388947868
 20
-441.0857291251216
 10
-814.9471628266388
 20
-441.0617415077227
 10
-814.8905217242687
 20
-441.0382358542171
 10
-814.8339155876765
 20
-441.0152121646047
 10
-814.7773444168629
 20
-440.9926704388856
 10
-814.7208082118268
 20
-440.9706106770599
 10
-814.6643069725685
 20
-440.9490328791273
 10
-814.6078406990886
 20
-440.9279370450882
 10
-814.5514093913865
 20
-440.9073231749422
 10
-814.4950130494624
 20
-440.8871912686897
 10
-814.4386516733163
 20
-440.8675413263302
 10
-814.3823252629481
 20
-440.8483733478641
 10
-814.3260338183582
 20
-440.8296873332914
 10
-814.2697773395459
 20
-440.811483282612
 10
-814.2135558265117
 20
-440.7937611958256
 10
-814.1573692792556
 20
-440.7765210729328
 10
-814.1012176977776
 20
-440.7597629139332
 10
-814.0451010820772
 20
-440.7434867188269
 10
-813.9890194321548
 20
-440.7276924876137
 10
-813.9329727480106
 20
-440.712380220294
 10
-813.8769610296444
 20
-440.6975499168676
 10
-813.820984277056
 20
-440.6832015773344
 10
-813.7650424902458
 20
-440.6693352016945
 10
-813.7091356692135
 20
-440.6559507899479
 10
-813.6532638139591
 20
-440.6430483420946
 10
-813.5974269244828
 20
-440.6306278581345
 10
-813.5416250007844
 20
-440.6186893380678
 10
-813.4858580428639
 20
-440.6072327818943
 10
-813.4301260507216
 20
-440.5962581896142
 10
-813.3744290243573
 20
-440.5857655612273
 10
-813.318766963771
 20
-440.5757548967337
 10
-813.2631398689625
 20
-440.5662261961335
 10
-813.2075477399322
 20
-440.5571794594265
 10
-813.1519905766797
 20
-440.5486146866127
 10
-813.0964683792051
 20
-440.5405318776923
 10
-813.0409811475086
 20
-440.5329310326652
 10
-812.9855288815903
 20
-440.5258121515314
 10
-812.9301115814495
 20
-440.5191752342908
 10
-812.8747292470873
 20
-440.5130202809435
 10
-812.8193818785025
 20
-440.5073472914896
 10
-812.7640694756959
 20
-440.5021562659288
 10
-812.7087920386674
 20
-440.4974472042616
 10
-812.6535495674167
 20
-440.4932201064873
 10
-812.5983420619441
 20
-440.4894749726065
 10
-812.5431695222497
 20
-440.4862118026191
 10
-812.4880319483329
 20
-440.4834305965247
 10
-812.4329293401942
 20
-440.4811313543239
 10
-812.3778616978334
 20
-440.4793140760161
 10
-812.3228290212509
 20
-440.4779787616017
 10
-812.2678313104463
 20
-440.4771254110808
 10
-812.2128685654194
 20
-440.4767540244528
 10
-812.1579407861707
 20
-440.4768646017183
 10
-812.1030479727002
 20
-440.4774571428772
 10
-812.0481901250073
 20
-440.4785316479292
 10
-812.0481901250073
 20
-440.4785316479292
  0
ARC
  5
3D1
330
502
100
AcDbEntity
  8
DATA
  6
Continuous
 62
     7
100
AcDbCircle
 10
-698.6254562273117
 20
-452.2080571606386
 30
0.0
 40
0.4144180492637989
100
AcDbArc
 50
307.6419024975554
 51
354.2670192894067
  0
LINE
  5
3D2
330
502
100
AcDbEntity
  8
DATA
  6
Continuous
 62
     7
100
AcDbLine
 10
-709.2702869999568
 20
-445.6774994194061
 30
0.0
 11
-707.3274889999567
 21
-441.048355419406
 31
0.0
  0
LINE
  5
3D3
330
502
100
AcDbEntity
  8
DATA
  6
Continuous
 62
     7
100
AcDbLine
 10
-709.2702869999568
 20
-445.6774994194061
 30
0.0
 11
-711.1891129999568
 21
-441.048355419406
 31
0.0
  0
LINE
  5
3D4
330
502
100
AcDbEntity
  8
DATA
  6
Continuous
 62
     7
100
AcDbLine
 10
-694.5433669999568
 20
-454.048355419406
 30
0.0
 11
-694.5433669999568
 21
-441.048355419406
 31
0.0
  0
LINE
  5
3D5
330
502
100
AcDbEntity
  8
DATA
  6
Continuous
 62
     7
100
AcDbLine
 10
-692.0489009999569
 20
-441.048355419406
 30
0.0
 11
-692.0489009999569
 21
-452.0575874194062
 31
0.0
  0
LINE
  5
3D6
330
502
100
AcDbEntity
  8
DATA
  6
Continuous
 62
     7
100
AcDbLine
 10
-706.4160459999568
 20
-441.048355419406
 30
0.0
 11
-706.4160459999568
 21
-452.0575874194062
 31
0.0
  0
LINE
  5
3D7
330
502
100
AcDbEntity
  8
DATA
  6
Continuous
 62
     7
100
AcDbLine
 10
-704.0175199999567
 20
-441.048355419406
 30
0.0
 11
-704.0175199999567
 21
-452.0575874194062
 31
0.0
  0
LINE
  5
3D8
330
502
100
AcDbEntity
  8
DATA
  6
Continuous
 62
     7
100
AcDbLine
 10
-702.7702869999568
 20
-441.048355419406
 30
0.0
 11
-702.7702869999568
 21
-454.048355419406
 31
0.0
  0
LINE
  5
3D9
330
502
100
AcDbEntity
  8
DATA
  6
Continuous
 62
     7
100
AcDbLine
 10
-700.5876259999568
 20
-442.2715904194062
 30
0.0
 11
-700.5876259999568
 21
-446.4450324194062
 31
0.0
  0
LINE
  5
3DA
330
502
100
AcDbEntity
  8
DATA
  6
Continuous
 62
     7
100
AcDbLine
 10
-695.9094719999568
 20
-446.2035444194062
 30
0.0
 11
-695.9094719999568
 21
-443.1590614194062
 31
0.0
  0
LINE
  5
3DB
330
502
100
AcDbEntity
  8
DATA
  6
Continuous
 62
     7
100
AcDbLine
 10
-698.2131109999569
 20
-442.847243419406
 30
0.0
 11
-698.2131109999569
 21
-445.8693924194061
 31
0.0
  0
ARC
  5
3DC
330
502
100
AcDbEntity
  8
DATA
  6
Continuous
 62
     7
100
AcDbCircle
 10
-706.8973579999569
 20
-450.710215419406
 30
0.0
 40
3.352509452718326
100
AcDbArc
 50
264.6908562215338
 51
323.991199154243
  0
LINE
  5
3DD
330
502
100
AcDbEntity
  8
DATA
  6
Continuous
 62
     7
100
AcDbLine
 10
-708.2389189999568
 20
-449.970853419406
 30
0.0
 11
-708.2389189999568
 21
-452.057561419406
 31
0.0
  0
LINE
  5
3DE
330
502
100
AcDbEntity
  8
DATA
  6
Continuous
 62
     7
100
AcDbLine
 10
-708.2389189999568
 20
-449.970853419406
 30
0.0
 11
-710.3975949999568
 21
-449.970853419406
 31
0.0
  0
LINE
  5
3DF
330
502
100
AcDbEntity
  8
DATA
  6
Continuous
 62
     7
100
AcDbLine
 10
-710.3975949999568
 20
-449.970853419406
 30
0.0
 11
-710.3975949999568
 21
-452.057561419406
 31
0.0
  0
ARC
  5
3E0
330
502
100
AcDbEntity
  8
DATA
  6
Continuous
 62
     7
100
AcDbCircle
 10
-707.3229129999567
 20
-452.0856934194061
 30
0.0
 40
0.9073074741148923
100
AcDbArc
 50
269.7118487927531
 51
1.775987005690865
  0
ARC
  5
3E1
330
502
100
AcDbEntity
  8
DATA
  6
Continuous
 62
     7
100
AcDbCircle
 10
-707.3320519999571
 20
-452.0856934194061
 30
0.0
 40
0.9073028346971256
100
AcDbArc
 50
178.2240129943164
 51
270.2881512072611
  0
ARC
  5
3E2
330
502
100
AcDbEntity
  8
DATA
  6
Continuous
 62
     7
100
AcDbCircle
 10
-707.517756999957
 20
-450.710215419406
 30
0.0
 40
3.352504008030629
100
AcDbArc
 50
216.0088008457612
 51
275.3091437784673
  0
ARC
  5
3E3
330
502
100
AcDbEntity
  8
DATA
  6
Continuous
 62
     7
100
AcDbCircle
 10
-708.8825229999567
 20
-451.9840724194062
 30
0.0
 40
1.516840270629332
100
AcDbArc
 50
182.7769954499887
 51
207.3596066671406
  0
CIRCLE
  5
3E4
330
502
100
AcDbEntity
  8
DATA
  6
Continuous
 62
     7
100
AcDbCircle
 10
-709.1383629999569
 20
-447.4764004194061
 30
0.0
 40
1.235234000000218
  0
LINE
  5
3E5
330
502
100
AcDbEntity
  8
DATA
  6
Continuous
 62
     7
100
AcDbLine
 10
-688.0433669999567
 20
-454.048342419406
 30
0.0
 11
-694.5433669999568
 21
-454.048342419406
 31
0.0
  0
LINE
  5
3E6
330
502
100
AcDbEntity
  8
DATA
  6
Continuous
 62
     7
100
AcDbLine
 10
-688.0433669999567
 20
-454.048342419406
 30
0.0
 11
-688.0433669999567
 21
-449.9708404194062
 31
0.0
  0
LINE
  5
3E7
330
502
100
AcDbEntity
  8
DATA
  6
Continuous
 62
     7
100
AcDbLine
 10
-688.0433669999567
 20
-449.970853419406
 30
0.0
 11
-690.2260149999571
 21
-449.970853419406
 31
0.0
  0
LINE
  5
3E8
330
502
100
AcDbEntity
  8
DATA
  6
Continuous
 62
     7
100
AcDbLine
 10
-690.2260149999571
 20
-449.970853419406
 30
0.0
 11
-690.2260149999571
 21
-452.057561419406
 31
0.0
  0
LINE
  5
3E9
330
502
100
AcDbEntity
  8
DATA
  6
Continuous
 62
     7
100
AcDbLine
 10
-702.7702869999568
 20
-454.048342419406
 30
0.0
 11
-698.2131109999569
 21
-454.0483294194062
 31
0.0
  0
LINE
  5
3EA
330
502
100
AcDbEntity
  8
DATA
  6
Continuous
 62
     7
100
AcDbLine
 10
-700.5876389999567
 20
-452.825094419406
 30
0.0
 11
-699.4123609999569
 21
-452.825094419406
 31
0.0
  0
LINE
  5
3EB
330
502
100
AcDbEntity
  8
DATA
  6
Continuous
 62
     7
100
AcDbLine
 10
-700.5876259999568
 20
-452.825094419406
 30
0.0
 11
-700.5876259999568
 21
-447.6922524194062
 31
0.0
  0
LINE
  5
3EC
330
502
100
AcDbEntity
  8
DATA
  6
Continuous
 62
     7
100
AcDbLine
 10
-700.5876389999567
 20
-447.6922524194062
 30
0.0
 11
-699.4123609999569
 21
-447.6922524194062
 31
0.0
  0
LINE
  5
3ED
330
502
100
AcDbEntity
  8
DATA
  6
Continuous
 62
     7
100
AcDbLine
 10
-698.2131109999569
 20
-452.249454419406
 30
0.0
 11
-698.2131109999569
 21
-448.2678924194062
 31
0.0
  0
ARC
  5
3EE
330
502
100
AcDbEntity
  8
DATA
  6
Continuous
 62
     7
100
AcDbCircle
 10
-705.5325919999569
 20
-451.9840724194062
 30
0.0
 40
1.516838112224325
100
AcDbArc
 50
332.6403933328519
 51
357.2230045500075
  0
ARC
  5
3EF
330
502
100
AcDbEntity
  8
DATA
  6
Continuous
 62
     7
100
AcDbCircle
 10
-691.1328949999571
 20
-452.0856934194061
 30
0.0
 40
0.9073074741148923
100
AcDbArc
 50
269.7118487927531
 51
1.775987005690865
  0
ARC
  5
3F0
330
502
100
AcDbEntity
  8
DATA
  6
Continuous
 62
     7
100
AcDbCircle
 10
-691.142020999957
 20
-452.0856934194061
 30
0.0
 40
0.9073028346971256
100
AcDbArc
 50
178.2240129943164
 51
270.2881512072611
  0
LINE
  5
3F1
330
502
100
AcDbEntity
  8
DATA
  6
Continuous
 62
     7
100
AcDbLine
 10
-695.9105249999567
 20
-451.961621419406
 30
0.0
 11
-695.9105249999567
 21
-448.5077554194061
 31
0.0
  0
LINE
  5
3F2
330
502
100
AcDbEntity
  8
DATA
  6
Continuous
 62
     7
100
AcDbLine
 10
-700.5876389999567
 20
-446.4450324194062
 30
0.0
 11
-699.4123609999569
 21
-446.4450324194062
 31
0.0
  0
ARC
  5
3F3
330
502
100
AcDbEntity
  8
DATA
  6
Continuous
 62
     7
100
AcDbCircle
 10
-698.3783669999573
 20
-451.580461419406
 30
0.0
 40
2.473394835233631
100
AcDbArc
 50
273.83098160912
 51
351.1351473098033
  0
LINE
  5
3F4
330
502
100
AcDbEntity
  8
DATA
  6
Continuous
 62
     7
100
AcDbLine
 10
-706.4160459999568
 20
-441.048355419406
 30
0.0
 11
-704.0175199999567
 21
-441.048355419406
 31
0.0
  0
LINE
  5
3F5
330
502
100
AcDbEntity
  8
DATA
  6
Continuous
 62
     7
100
AcDbLine
 10
-711.1891129999568
 20
-441.048355419406
 30
0.0
 11
-707.3274889999567
 21
-441.048355419406
 31
0.0
  0
LINE
  5
3F6
330
502
100
AcDbEntity
  8
DATA
  6
Continuous
 62
     7
100
AcDbLine
 10
-694.5433669999568
 20
-441.048355419406
 30
0.0
 11
-692.0489009999569
 21
-441.048355419406
 31
0.0
  0
LINE
  5
3F7
330
502
100
AcDbEntity
  8
DATA
  6
Continuous
 62
     7
100
AcDbLine
 10
-702.7702869999568
 20
-441.048355419406
 30
0.0
 11
-698.1880598333665
 21
-441.0483659412687
 31
0.0
  0
LINE
  5
3F8
330
502
100
AcDbEntity
  8
DATA
  6
Continuous
 62
     7
100
AcDbLine
 10
-700.5876389999567
 20
-442.271603419406
 30
0.0
 11
-699.4123609999569
 21
-442.271603419406
 31
0.0
  0
ARC
  5
3F9
330
502
100
AcDbEntity
  8
DATA
  6
Continuous
 62
     7
100
AcDbCircle
 10
-698.3537059999568
 20
-443.5124534194062
 30
0.0
 40
2.469648912785038
100
AcDbArc
 50
8.226923859017906
 51
86.15412669216265
  0
ARC
  5
3FA
330
502
100
AcDbEntity
  8
DATA
  6
Continuous
 62
     7
100
AcDbCircle
 10
-699.3984828985726
 20
-450.5453000706431
 30
0.0
 40
2.279836589396272
100
AcDbArc
 50
269.6512199376145
 51
282.8264828068699
  0
ARC
  5
3FB
330
502
100
AcDbEntity
  8
DATA
  6
Continuous
 62
     7
100
AcDbCircle
 10
-699.1424211642502
 20
-451.5091698240014
 30
0.0
 40
1.283669274801183
100
AcDbArc
 50
281.2331036226554
 51
306.8620088940603
  0
ARC
  5
3FC
330
502
100
AcDbEntity
  8
DATA
  6
Continuous
 62
     7
100
AcDbCircle
 10
-698.6254562273117
 20
-448.3092896781737
 30
0.0
 40
0.4144180492639293
100
AcDbArc
 50
5.732980710608975
 51
52.35809750244465
  0
ARC
  5
3FD
330
502
100
AcDbEntity
  8
DATA
  6
Continuous
 62
     7
100
AcDbCircle
 10
-699.3984828985726
 20
-449.9720467681691
 30
0.0
 40
2.279836589396204
100
AcDbArc
 50
77.17351719313007
 51
90.34878006238555
  0
ARC
  5
3FE
330
502
100
AcDbEntity
  8
DATA
  6
Continuous
 62
     7
100
AcDbCircle
 10
-699.1424211642502
 20
-449.0081770148108
 30
0.0
 40
1.2836692748011
100
AcDbArc
 50
53.13799110593965
 51
78.76689637734457
  0
ARC
  5
3FF
330
502
100
AcDbEntity
  8
DATA
  6
Continuous
 62
     7
100
AcDbCircle
 10
-697.168508999957
 20
-448.5927884194061
 30
0.0
 40
1.260854613088187
100
AcDbArc
 50
3.867006359818905
 51
88.36163456789694
  0
ARC
  5
400
330
502
100
AcDbEntity
  8
DATA
  6
Continuous
 62
     7
100
AcDbCircle
 10
-697.1696659999572
 20
-446.0708924194062
 30
0.0
 40
1.2621075219319
100
AcDbArc
 50
271.689282104647
 51
356.0782829826563
  0
ARC
  5
401
330
502
100
AcDbEntity
  8
DATA
  6
Continuous
 62
     7
100
AcDbCircle
 10
-698.6254562273117
 20
-445.8279951606386
 30
0.0
 40
0.4144180492637989
100
AcDbArc
 50
307.6419024975554
 51
354.2670192894067
  0
ARC
  5
402
330
502
100
AcDbEntity
  8
DATA
  6
Continuous
 62
     7
100
AcDbCircle
 10
-699.3984828985726
 20
-444.1652380706432
 30
0.0
 40
2.279836589396272
100
AcDbArc
 50
269.6512199376145
 51
282.8264828068699
  0
ARC
  5
403
330
502
100
AcDbEntity
  8
DATA
  6
Continuous
 62
     7
100
AcDbCircle
 10
-699.1424211642502
 20
-445.1291078240014
 30
0.0
 40
1.283669274801071
100
AcDbArc
 50
281.2331036226564
 51
306.8620088940603
  0
ARC
  5
404
330
502
100
AcDbEntity
  8
DATA
  6
Continuous
 62
     7
100
AcDbCircle
 10
-698.6254562273117
 20
-442.8886406781737
 30
0.0
 40
0.4144180492639407
100
AcDbArc
 50
5.732980710624616
 51
52.35809750245424
  0
ARC
  5
405
330
502
100
AcDbEntity
  8
DATA
  6
Continuous
 62
     7
100
AcDbCircle
 10
-699.3984828985726
 20
-444.5513977681692
 30
0.0
 40
2.279836589396204
100
AcDbArc
 50
77.17351719313007
 51
90.34878006238551
  0
ARC
  5
406
330
502
100
AcDbEntity
  8
DATA
  6
Continuous
 62
     7
100
AcDbCircle
 10
-699.1424211642502
 20
-443.5875280148108
 30
0.0
 40
1.2836692748011
100
AcDbArc
 50
53.13799110593965
 51
78.76689637734457
  0
LINE
  5
407
330
502
100
AcDbEntity
  8
DATA
  6
Continuous
 62
     7
100
AcDbLine
 10
-838.4999999999447
 20
-122.4299999999991
 30
0.0
 11
-561.4999999999446
 21
-122.4299999999991
 31
0.0
  0
LINE
  5
408
330
502
100
AcDbEntity
  8
DATA
  6
Continuous
 62
     7
100
AcDbLine
 10
-691.4699999999442
 20
-83.42999999999916
 30
0.0
 11
-708.5299999999442
 21
-83.42999999999916
 31
0.0
  0
ARC
  5
409
330
502
100
AcDbEntity
  8
DATA
  6
Continuous
 62
     7
100
AcDbCircle
 10
-699.9999999999446
 20
-348.8562820512812
 30
0.0
 40
265.426282051282
100
AcDbArc
 50
58.54678720358171
 51
121.4532127964183
  0
LINE
  5
40A
330
502
100
AcDbEntity
  8
DATA
  6
Continuous
 62
     7
100
AcDbLine
 10
-572.9014392590035
 20
-343.4299999999992
 30
0.0
 11
-579.9783430147701
 21
-427.4299999999991
 31
0.0
  0
LINE
  5
40B
330
502
100
AcDbEntity
  8
DATA
  6
Continuous
 62
     7
100
AcDbLine
 10
-564.8144097697715
 20
-470.4299999999991
 30
0.0
 11
-835.1855902301172
 21
-470.4299999999991
 31
0.0
  0
LINE
  5
40C
330
502
100
AcDbEntity
  8
DATA
  6
Continuous
 62
     7
100
AcDbLine
 10
-557.145863410704
 20
-343.4299999999992
 30
0.0
 11
-557.145863410704
 21
-496.4299999999991
 31
0.0
  0
LINE
  5
40D
330
502
100
AcDbEntity
  8
DATA
  6
Continuous
 62
     7
100
AcDbLine
 10
-579.9783430147701
 20
-427.4299999999991
 30
0.0
 11
-564.8144097697715
 21
-470.4299999999991
 31
0.0
  0
LINE
  5
40E
330
502
100
AcDbEntity
  8
DATA
  6
Continuous
 62
     7
100
AcDbLine
 10
-585.1453392376712
 20
-122.4299999999991
 30
0.0
 11
-564.8144097697715
 21
-343.4299999999992
 31
0.0
  0
LINE
  5
40F
330
502
100
AcDbEntity
  8
DATA
  6
Continuous
 62
     7
100
AcDbLine
 10
-871.9999999999446
 20
-343.4299999999992
 30
0.0
 11
-874.998249999966
 21
-470.4299999999991
 31
0.0
  0
LINE
  5
410
330
502
100
AcDbEntity
  8
DATA
  6
Continuous
 62
     7
100
AcDbLine
 10
-871.9999999999446
 20
-343.4299999999992
 30
0.0
 11
-838.4999999999447
 21
-122.4299999999991
 31
0.0
  0
LINE
  5
411
330
502
100
AcDbEntity
  8
DATA
  6
Continuous
 62
     7
100
AcDbLine
 10
-842.8541365891851
 20
-343.4299999999992
 30
0.0
 11
-814.8546607622176
 21
-122.4299999999991
 31
0.0
  0
LINE
  5
412
330
502
100
AcDbEntity
  8
DATA
  6
Continuous
 62
     7
100
AcDbLine
 10
-827.0985607408857
 20
-343.4299999999992
 30
0.0
 11
-820.0216569851187
 21
-427.4299999999991
 31
0.0
  0
LINE
  5
413
330
502
100
AcDbEntity
  8
DATA
  6
Continuous
 62
     7
100
AcDbLine
 10
-842.8541365891851
 20
-343.4299999999992
 30
0.0
 11
-842.8541365891851
 21
-496.4299999999991
 31
0.0
  0
LINE
  5
414
330
502
100
AcDbEntity
  8
DATA
  6
Continuous
 62
     7
100
AcDbLine
 10
-820.0216569851187
 20
-427.4299999999991
 30
0.0
 11
-835.1855902301172
 21
-470.4299999999991
 31
0.0
  0
LINE
  5
415
330
502
100
AcDbEntity
  8
DATA
  6
Continuous
 62
     7
100
AcDbLine
 10
-814.8546607622176
 20
-122.4299999999991
 30
0.0
 11
-835.1855902301172
 21
-343.4299999999992
 31
0.0
  0
LINE
  5
416
330
502
100
AcDbEntity
  8
DATA
  6
Continuous
 62
     7
100
AcDbLine
 10
-564.8144097697715
 20
-470.4299999999991
 30
0.0
 11
-564.8144097697715
 21
-496.4299999999991
 31
0.0
  0
LINE
  5
417
330
502
100
AcDbEntity
  8
DATA
  6
Continuous
 62
     7
100
AcDbLine
 10
-835.1855902301172
 20
-470.4299999999991
 30
0.0
 11
-835.1855902301172
 21
-496.4299999999991
 31
0.0
  0
LINE
  5
418
330
502
100
AcDbEntity
  8
DATA
  6
Continuous
 62
     7
100
AcDbLine
 10
-721.0278767973314
 20
-362.4450324194062
 30
0.0
 11
-820.0270769912091
 21
-427.3656667090809
 31
0.0
  0
LINE
  5
419
330
502
100
AcDbEntity
  8
DATA
  6
Continuous
 62
     7
100
AcDbLine
 10
-678.9721232025572
 20
-362.4450324194062
 30
0.0
 11
-579.9729230086796
 21
-427.3656667090809
 31
0.0
  0
LINE
  5
41A
330
502
100
AcDbEntity
  8
DATA
  6
Continuous
 62
     7
100
AcDbLine
 10
-525.0017499999349
 20
-470.4299999999991
 30
0.0
 11
-525.0017499999349
 21
-496.4299999999991
 31
0.0
  0
LINE
  5
41B
330
502
100
AcDbEntity
  8
DATA
  6
Continuous
 62
     7
100
AcDbLine
 10
-874.998249999966
 20
-470.4299999999991
 30
0.0
 11
-874.998249999966
 21
-496.4299999999991
 31
0.0
  0
LINE
  5
41C
330
502
100
AcDbEntity
  8
DATA
  6
Continuous
 62
     7
100
AcDbLine
 10
-835.1855902301172
 20
-470.4299999999991
 30
0.0
 11
-564.8144097697715
 21
-470.4299999999991
 31
0.0
  0
LINE
  5
41D
330
502
100
AcDbEntity
  8
DATA
  6
Continuous
 62
     7
100
AcDbLine
 10
-718.7499999999446
 20
-462.929999999999
 30
0.0
 11
-718.7499999999446
 21
-432.9299999999991
 31
0.0
  0
LINE
  5
41E
330
502
100
AcDbEntity
  8
DATA
  6
Continuous
 62
     7
100
AcDbLine
 10
-719.4999999999446
 20
-432.9299999999991
 30
0.0
 11
-719.4999999999446
 21
-464.4299999999991
 31
0.0
  0
LINE
  5
41F
330
502
100
AcDbEntity
  8
DATA
  6
Continuous
 62
     7
100
AcDbLine
 10
-718.7499999999446
 20
-462.929999999999
 30
0.0
 11
-681.2499999999446
 21
-462.9299999999991
 31
0.0
  0
LINE
  5
420
330
502
100
AcDbEntity
  8
DATA
  6
Continuous
 62
     7
100
AcDbLine
 10
-699.9999999999446
 20
-462.9299999999991
 30
0.0
 11
-699.9999999999446
 21
-464.4299999999991
 31
0.0
  0
ARC
  5
421
330
502
100
AcDbEntity
  8
DATA
  6
Continuous
 62
     7
100
AcDbCircle
 10
-699.9999999999456
 20
-717.5550000000145
 30
0.0
 40
253.8750000000155
100
AcDbArc
 50
85.59480367646845
 51
94.40519632353113
  0
LINE
  5
422
330
502
100
AcDbEntity
  8
DATA
  6
Continuous
 62
     7
100
AcDbLine
 10
-513.9015915222191
 20
-599.9999999999992
 30
0.0
 11
-886.0984084776818
 21
-599.9999999999992
 31
0.0
  0
LINE
  5
423
330
502
100
AcDbEntity
  8
DATA
  6
Continuous
 62
     7
100
AcDbLine
 10
-513.9015659985154
 20
-579.8782499999991
 30
0.0
 11
-557.145863410704
 21
-579.8782499999991
 31
0.0
  0
LINE
  5
424
330
502
100
AcDbEntity
  8
DATA
  6
Continuous
 62
     7
100
AcDbLine
 10
-564.8144097697619
 20
-496.4299999999991
 30
0.0
 11
-564.8144097697619
 21
-599.9999999999992
 31
0.0
  0
LINE
  5
425
330
502
100
AcDbEntity
  8
DATA
  6
Continuous
 62
     7
100
AcDbLine
 10
-886.0984340013859
 20
-579.8782499999991
 30
0.0
 11
-842.854136589197
 21
-579.8782499999991
 31
0.0
  0
LINE
  5
426
330
502
100
AcDbEntity
  8
DATA
  6
Continuous
 62
     7
100
AcDbLine
 10
-835.1855902301394
 20
-496.4299999999991
 30
0.0
 11
-835.1855902301394
 21
-599.9999999999992
 31
0.0
  0
ARC
  5
427
330
502
100
AcDbEntity
  8
DATA
  6
Continuous
 62
     7
100
AcDbCircle
 10
-699.9999999999509
 20
-599.9999999999992
 30
0.0
 40
10.97550000000001
100
AcDbArc
 50
0.0
 51
180.0
  0
ARC
  5
428
330
502
100
AcDbEntity
  8
DATA
  6
Continuous
 62
     7
100
AcDbCircle
 10
-699.9999999999509
 20
-599.9999999999992
 30
0.0
 40
13.41449999999986
100
AcDbArc
 50
0.0000000000009663
 51
179.999999999999
  0
LINE
  5
429
330
502
100
AcDbEntity
  8
DATA
  6
Continuous
 62
     7
100
AcDbLine
 10
-513.9015659985154
 20
-579.8782499999991
 30
0.0
 11
-513.9015915222191
 21
-599.9999999999992
 31
0.0
  0
LINE
  5
42A
330
502
100
AcDbEntity
  8
DATA
  6
Continuous
 62
     7
100
AcDbLine
 10
-886.0984340013859
 20
-579.8782499999991
 30
0.0
 11
-886.0984084776818
 21
-599.9999999999992
 31
0.0
  0
LINE
  5
42B
330
502
100
AcDbEntity
  8
DATA
  6
Continuous
 62
     7
100
AcDbLine
 10
-557.145863410704
 20
-496.4299999999991
 30
0.0
 11
-557.145863410704
 21
-599.9999999999992
 31
0.0
  0
LINE
  5
42C
330
502
100
AcDbEntity
  8
DATA
  6
Continuous
 62
     7
100
AcDbLine
 10
-842.854136589197
 20
-496.4299999999991
 30
0.0
 11
-842.854136589197
 21
-599.9999999999992
 31
0.0
  0
LINE
  5
42D
330
502
100
AcDbEntity
  8
DATA
  6
Continuous
 62
     7
100
AcDbLine
 10
-525.2458634107044
 20
-496.4299999999991
 30
0.0
 11
-874.7541365891965
 21
-496.4299999999991
 31
0.0
  0
LINE
  5
42E
330
502
100
AcDbEntity
  8
DATA
  6
Continuous
 62
     7
100
AcDbLine
 10
-525.2458634107044
 20
-496.4299999999991
 30
0.0
 11
-525.2458634107044
 21
-579.8782499999991
 31
0.0
  0
LINE
  5
42F
330
502
100
AcDbEntity
  8
DATA
  6
Continuous
 62
     7
100
AcDbLine
 10
-874.7541365891965
 20
-496.4299999999991
 30
0.0
 11
-874.7541365891965
 21
-579.8782499999991
 31
0.0
  0
ARC
  5
430
330
502
100
AcDbEntity
  8
DATA
  6
Continuous
 62
     7
100
AcDbCircle
 10
-699.9999999999509
 20
-899.9999999999994
 30
0.0
 40
174.9982500000153
100
AcDbArc
 50
159.4213671093558
 51
260.5786328906412
  0
ARC
  5
431
330
502
100
AcDbEntity
  8
DATA
  6
Continuous
 62
     7
100
AcDbCircle
 10
-699.9999999999509
 20
-899.9999999999994
 30
0.0
 40
174.9982500000158
100
AcDbArc
 50
39.42136710935918
 51
140.5786328906384
  0
ARC
  5
432
330
502
100
AcDbEntity
  8
DATA
  6
Continuous
 62
     7
100
AcDbCircle
 10
-699.9999999999509
 20
-899.9999999999994
 30
0.0
 40
174.9982500000154
100
AcDbArc
 50
279.42136710936
 51
20.57863289064266
  0
CIRCLE
  5
433
330
502
100
AcDbEntity
  8
DATA
  6
Continuous
 62
     7
100
AcDbCircle
 10
-700.0003362306994
 20
-1095.977399995393
 30
0.0
 40
3.25
  0
LINE
  5
434
330
502
100
AcDbEntity
  8
DATA
  6
Continuous
 62
     7
100
AcDbLine
 10
-543.2576817148521
 20
-977.8218038963402
 30
0.0
 11
-607.6535444004499
 21
-940.6428352401125
 31
0.0
  0
LINE
  5
435
330
502
100
AcDbEntity
  8
DATA
  6
Continuous
 62
     7
100
AcDbLine
 10
-554.233181714853
 20
-996.831927534812
 30
0.0
 11
-618.6290444004599
 21
-959.6529588785786
 31
0.0
  0
LINE
  5
436
330
502
100
AcDbEntity
  8
DATA
  6
Continuous
 62
     7
100
AcDbLine
 10
-856.742318285049
 20
-977.8218038963423
 30
0.0
 11
-792.3464555994537
 21
-940.6428352401151
 31
0.0
  0
LINE
  5
437
330
502
100
AcDbEntity
  8
DATA
  6
Continuous
 62
     7
100
AcDbLine
 10
-845.7668182850481
 20
-996.8319275348132
 30
0.0
 11
-781.3709555994392
 21
-959.652958878579
 31
0.0
  0
LINE
  5
438
330
502
100
AcDbEntity
  8
DATA
  6
Continuous
 62
     7
100
AcDbLine
 10
-710.9754999999491
 20
-725.3462685688674
 30
0.0
 11
-710.9754999999491
 21
-799.7042058813288
 31
0.0
  0
LINE
  5
439
330
502
100
AcDbEntity
  8
DATA
  6
Continuous
 62
     7
100
AcDbLine
 10
-689.0244999999492
 20
-725.3462685688678
 30
0.0
 11
-689.0244999999492
 21
-799.7042058813288
 31
0.0
  0
ARC
  5
43A
330
502
100
AcDbEntity
  8
DATA
  6
Continuous
 62
     7
100
AcDbCircle
 10
-699.9999999999483
 20
-1100.806750000028
 30
0.0
 40
12.19500000000007
100
AcDbArc
 50
216.8698976458492
 51
323.1301023541248
  0
LINE
  5
43B
330
502
100
AcDbEntity
  8
DATA
  6
Continuous
 62
     7
100
AcDbLine
 10
-731.8999999999477
 20
-1083.371222016456
 30
0.0
 11
-709.7559999999476
 21
-1108.123750000029
 31
0.0
  0
LINE
  5
43C
330
502
100
AcDbEntity
  8
DATA
  6
Continuous
 62
     7
100
AcDbLine
 10
-668.0999999999476
 20
-1083.371222016456
 30
0.0
 11
-690.243999999952
 21
-1108.123750000033
 31
0.0
  0
LINE
  5
43D
330
502
100
AcDbEntity
  8
DATA
  6
Continuous
 62
     7
100
AcDbLine
 10
-731.8999999999477
 20
-1083.371222016456
 30
0.0
 11
-728.6461407314775
 21
-1072.63773088251
 31
0.0
  0
LINE
  5
43E
330
502
100
AcDbEntity
  8
DATA
  6
Continuous
 62
     7
100
AcDbLine
 10
-668.0999999999476
 20
-1083.371222016456
 30
0.0
 11
-671.3538592684191
 21
-1072.637730882509
 31
0.0
  0
ARC
  5
43F
330
502
100
AcDbEntity
  8
DATA
  6
Continuous
 62
     7
100
AcDbCircle
 10
-873.9037467513682
 20
-799.5966249999879
 30
0.0
 40
12.19500000000027
100
AcDbArc
 50
96.86989764584801
 51
203.1301023541244
  0
LINE
  5
440
330
502
100
AcDbEntity
  8
DATA
  6
Continuous
 62
     7
100
AcDbLine
 10
-842.8541365892005
 20
-780.6881786110502
 30
0.0
 11
-875.3624546308598
 21
-787.4891811606667
 31
0.0
  0
LINE
  5
441
330
502
100
AcDbEntity
  8
DATA
  6
Continuous
 62
     7
100
AcDbLine
 10
-874.7541365892006
 20
-835.9405993724974
 30
0.0
 11
-885.1184546308617
 21
-804.3870688393024
 31
0.0
  0
LINE
  5
442
330
502
100
AcDbEntity
  8
DATA
  6
Continuous
 62
     7
100
AcDbLine
 10
-842.8541365892005
 20
-780.6881786110502
 30
0.0
 11
-835.1855902301432
 21
-788.8728489648582
 31
0.0
  0
LINE
  5
443
330
502
100
AcDbEntity
  8
DATA
  6
Continuous
 62
     7
100
AcDbLine
 10
-874.7541365892006
 20
-835.9405993724974
 30
0.0
 11
-863.831730961672
 21
-838.4894201526355
 31
0.0
  0
ARC
  5
444
330
502
100
AcDbEntity
  8
DATA
  6
Continuous
 62
     7
100
AcDbCircle
 10
-526.0962532485365
 20
-799.5966249999822
 30
0.0
 40
12.19499999999963
100
AcDbArc
 50
336.869897645846
 51
83.13010235412589
  0
LINE
  5
445
330
502
100
AcDbEntity
  8
DATA
  6
Continuous
 62
     7
100
AcDbLine
 10
-525.2458634107044
 20
-835.9405993724914
 30
0.0
 11
-514.8815453690459
 21
-804.3870688393027
 31
0.0
  0
LINE
  5
446
330
502
100
AcDbEntity
  8
DATA
  6
Continuous
 62
     7
100
AcDbLine
 10
-557.1458634107049
 20
-780.6881786110444
 30
0.0
 11
-524.6375453690395
 21
-787.4891811606624
 31
0.0
  0
LINE
  5
447
330
502
100
AcDbEntity
  8
DATA
  6
Continuous
 62
     7
100
AcDbLine
 10
-525.2458634107044
 20
-835.9405993724914
 30
0.0
 11
-536.1682690382322
 21
-838.4894201526302
 31
0.0
  0
LINE
  5
448
330
502
100
AcDbEntity
  8
DATA
  6
Continuous
 62
     7
100
AcDbLine
 10
-557.1458634107049
 20
-780.6881786110444
 30
0.0
 11
-564.8144097697623
 21
-788.8728489648534
 31
0.0
  0
CIRCLE
  5
449
330
502
100
AcDbEntity
  8
DATA
  6
Continuous
 62
     7
100
AcDbCircle
 10
-699.9999999999491
 20
-820.596749999985
 30
0.0
 40
23.59999999999991
  0
CIRCLE
  5
44A
330
502
100
AcDbEntity
  8
DATA
  6
Continuous
 62
     7
100
AcDbCircle
 10
-631.2347683568924
 20
-939.7016250000078
 30
0.0
 40
23.59999999999983
  0
CIRCLE
  5
44B
330
502
100
AcDbEntity
  8
DATA
  6
Continuous
 62
     7
100
AcDbCircle
 10
-768.7652316430114
 20
-939.7016250000048
 30
0.0
 40
23.59999999999979
  0
TEXT
  5
44C
330
502
100
AcDbEntity
  8
DATA
 62
     7
100
AcDbText
 10
749.9999999999996
 20
-1624.84124
 30
0.0
 40
36.64892578125
  1
JBL PROFESSIONAL
 41
0.7
 11
749.9999999999996
 21
-1588.19231421875
 31
0.0
100
AcDbText
 73
     3
  0
CIRCLE
  5
44D
330
502
100
AcDbEntity
  8
DATA
  6
Continuous
 62
     7
100
AcDbCircle
 10
-530.2784249210149
 20
-802.01159118663
 30
0.0
 40
3.249999999999971
  0
CIRCLE
  5
44E
330
502
100
AcDbEntity
  8
DATA
  6
Continuous
 62
     7
100
AcDbCircle
 10
-869.7212388482855
 20
-802.0110088179752
 30
0.0
 40
3.249999999999971
  0
ARC
  5
44F
330
502
100
AcDbEntity
  8
DATA
  6
Continuous
 62
     7
100
AcDbCircle
 10
-699.9999999999574
 20
150.0
 30
0.0
 40
174.9982500000153
100
AcDbArc
 50
219.4213671093574
 51
320.5786328906434
  0
ARC
  5
450
330
502
100
AcDbEntity
  8
DATA
  6
Continuous
 62
     7
100
AcDbCircle
 10
-699.9999999999509
 20
150.0000000000039
 30
0.0
 40
138.4999999999998
100
AcDbArc
 50
213.9756109171093
 51
326.0243890828964
  0
ARC
  5
451
330
502
100
AcDbEntity
  8
DATA
  6
Continuous
 62
     7
100
AcDbCircle
 10
-699.9999999999509
 20
150.0000000000039
 30
0.0
 40
138.5
100
AcDbArc
 50
333.9756109171093
 51
86.02438908289631
  0
ARC
  5
452
330
502
100
AcDbEntity
  8
DATA
  6
Continuous
 62
     7
100
AcDbCircle
 10
-699.9999999999509
 20
150.0000000000039
 30
0.0
 40
138.5
100
AcDbArc
 50
93.97662839661615
 51
206.0243890828964
  0
CIRCLE
  5
453
330
502
100
AcDbEntity
  8
DATA
  6
Continuous
 62
     7
100
AcDbCircle
 10
-699.9999999999574
 20
150.0
 30
0.0
 40
137.5
  0
ARC
  5
454
330
502
100
AcDbEntity
  8
DATA
  6
Continuous
 62
     7
100
AcDbCircle
 10
-699.9999999999509
 20
150.0000000000039
 30
0.0
 40
174.9982500000155
100
AcDbArc
 50
339.4213671093616
 51
80.57863289064073
  0
ARC
  5
455
330
502
100
AcDbEntity
  8
DATA
  6
Continuous
 62
     7
100
AcDbCircle
 10
-699.9999999999509
 20
150.0000000000039
 30
0.0
 40
174.9982500000155
100
AcDbArc
 50
99.4280522818498
 51
200.5786328906399
  0
ARC
  5
456
330
502
100
AcDbEntity
  8
DATA
  6
Continuous
 62
     7
100
AcDbCircle
 10
-699.9999999999483
 20
350.8067500000326
 30
0.0
 40
12.19500000000012
100
AcDbArc
 50
36.86989764587437
 51
143.1301023541513
  0
LINE
  5
457
330
502
100
AcDbEntity
  8
DATA
  6
Continuous
 62
     7
100
AcDbLine
 10
-731.8999999999477
 20
333.3712220164609
 30
0.0
 11
-709.7559999999476
 21
358.1237500000334
 31
0.0
  0
LINE
  5
458
330
502
100
AcDbEntity
  8
DATA
  6
Continuous
 62
     7
100
AcDbLine
 10
-668.0999999999476
 20
333.3712220164609
 30
0.0
 11
-690.243999999952
 21
358.1237500000378
 31
0.0
  0
LINE
  5
459
330
502
100
AcDbEntity
  8
DATA
  6
Continuous
 62
     7
100
AcDbLine
 10
-731.8999999999477
 20
333.3712220164609
 30
0.0
 11
-728.6461407314775
 21
322.6377308825144
 31
0.0
  0
LINE
  5
45A
330
502
100
AcDbEntity
  8
DATA
  6
Continuous
 62
     7
100
AcDbLine
 10
-668.0999999999476
 20
333.3712220164609
 30
0.0
 11
-671.3538592684191
 21
322.6377308825137
 31
0.0
  0
CIRCLE
  5
45B
330
502
100
AcDbEntity
  8
DATA
  6
Continuous
 62
     7
100
AcDbCircle
 10
-700.0003362307061
 20
345.9773999953942
 30
0.0
 40
3.25
  0
ARC
  5
45C
330
502
100
AcDbEntity
  8
DATA
  6
Continuous
 62
     7
100
AcDbCircle
 10
-699.9999999999478
 20
90.91672685939725
 30
0.0
 40
244.544049655408
100
AcDbArc
 50
82.50458540498945
 51
97.49541459501054
  0
LINE
  5
45D
330
502
100
AcDbEntity
  8
DATA
  6
Continuous
 62
     7
100
AcDbLine
 10
-709.4999999999575
 20
287.9999999999985
 30
0.0
 11
-690.4999999999574
 21
288.0000000000015
 31
0.0
  0
LINE
  5
45E
330
502
100
AcDbEntity
  8
DATA
  6
Continuous
 62
     7
100
AcDbLine
 10
-671.3538592684223
 20
322.6377308825004
 30
0.0
 11
-690.4999999999574
 21
288.0000000000015
 31
0.0
  0
LINE
  5
45F
330
502
100
AcDbEntity
  8
DATA
  6
Continuous
 62
     7
100
AcDbLine
 10
-728.6461407314775
 20
322.6377308825144
 30
0.0
 11
-709.4999999999575
 21
287.9999999999985
 31
0.0
  0
ARC
  5
460
330
502
100
AcDbEntity
  8
DATA
  6
Continuous
 62
     7
100
AcDbCircle
 10
-526.0962532485365
 20
49.59662499998722
 30
0.0
 40
12.19500000000013
100
AcDbArc
 50
276.869897645874
 51
23.13010235415127
  0
LINE
  5
461
330
502
100
AcDbEntity
  8
DATA
  6
Continuous
 62
     7
100
AcDbLine
 10
-525.2458634107044
 20
85.94059937249626
 30
0.0
 11
-514.8815453690454
 21
54.38706883930723
 31
0.0
  0
LINE
  5
462
330
502
100
AcDbEntity
  8
DATA
  6
Continuous
 62
     7
100
AcDbLine
 10
-557.1458634107044
 20
30.68817861104895
 30
0.0
 11
-524.6375453690395
 21
37.48918116066688
 31
0.0
  0
LINE
  5
463
330
502
100
AcDbEntity
  8
DATA
  6
Continuous
 62
     7
100
AcDbLine
 10
-525.2458634107044
 20
85.94059937249626
 30
0.0
 11
-536.1682690382322
 21
88.48942015263475
 31
0.0
  0
LINE
  5
464
330
502
100
AcDbEntity
  8
DATA
  6
Continuous
 62
     7
100
AcDbLine
 10
-557.1458634107044
 20
30.68817861104895
 30
0.0
 11
-564.8144097697619
 21
38.87284896485829
 31
0.0
  0
CIRCLE
  5
465
330
502
100
AcDbEntity
  8
DATA
  6
Continuous
 62
     7
100
AcDbCircle
 10
-530.2784249210209
 20
52.01159118663078
 30
0.0
 40
3.249999999999922
  0
ARC
  5
466
330
502
100
AcDbEntity
  8
DATA
  6
Continuous
 62
     7
100
AcDbCircle
 10
-751.1676154784526
 20
179.5416365703045
 30
0.0
 40
244.5440496554081
100
AcDbArc
 50
322.5045854049894
 51
337.4954145950106
  0
LINE
  5
467
330
502
100
AcDbEntity
  8
DATA
  6
Continuous
 62
     7
100
AcDbLine
 10
-575.7384942776999
 20
89.22724133596437
 30
0.0
 11
-585.2384942776975
 21
72.77275866405846
 31
0.0
  0
LINE
  5
468
330
502
100
AcDbEntity
  8
DATA
  6
Continuous
 62
     7
100
AcDbLine
 10
-564.814409769772
 20
38.87284896486773
 30
0.0
 11
-585.2384942776975
 21
72.77275866405846
 31
0.0
  0
LINE
  5
469
330
502
100
AcDbEntity
  8
DATA
  6
Continuous
 62
     7
100
AcDbLine
 10
-536.1682690382322
 20
88.48942015263475
 30
0.0
 11
-575.7384942776999
 21
89.22724133596437
 31
0.0
  0
ARC
  5
46A
330
502
100
AcDbEntity
  8
DATA
  6
Continuous
 62
     7
100
AcDbCircle
 10
-873.9037467513682
 20
49.596624999992
 30
0.0
 40
12.195
100
AcDbArc
 50
156.8698976458745
 51
263.1301023541519
  0
LINE
  5
46B
330
502
100
AcDbEntity
  8
DATA
  6
Continuous
 62
     7
100
AcDbLine
 10
-842.8541365892005
 20
30.68817861105453
 30
0.0
 11
-875.3624546308598
 21
37.48918116067108
 31
0.0
  0
LINE
  5
46C
330
502
100
AcDbEntity
  8
DATA
  6
Continuous
 62
     7
100
AcDbLine
 10
-874.7541365892006
 20
85.94059937250181
 30
0.0
 11
-885.1184546308617
 21
54.38706883930701
 31
0.0
  0
LINE
  5
46D
330
502
100
AcDbEntity
  8
DATA
  6
Continuous
 62
     7
100
AcDbLine
 10
-842.8541365892005
 20
30.68817861105453
 30
0.0
 11
-835.1855902301432
 21
38.87284896486273
 31
0.0
  0
LINE
  5
46E
330
502
100
AcDbEntity
  8
DATA
  6
Continuous
 62
     7
100
AcDbLine
 10
-874.7541365892006
 20
85.94059937250181
 30
0.0
 11
-863.831730961672
 21
88.48942015263974
 31
0.0
  0
CIRCLE
  5
46F
330
502
100
AcDbEntity
  8
DATA
  6
Continuous
 62
     7
100
AcDbCircle
 10
-869.721238848292
 20
52.01100881797606
 30
0.0
 40
3.25000000000007
  0
ARC
  5
470
330
502
100
AcDbEntity
  8
DATA
  6
Continuous
 62
     7
100
AcDbCircle
 10
-648.8323845214523
 20
179.5416365703101
 30
0.0
 40
244.5440496554081
100
AcDbArc
 50
202.5045854049894
 51
217.4954145950104
  0
LINE
  5
471
330
502
100
AcDbEntity
  8
DATA
  6
Continuous
 62
     7
100
AcDbLine
 10
-814.7615057221955
 20
72.77275866404902
 30
0.0
 11
-824.2615057221978
 21
89.22724133595188
 31
0.0
  0
LINE
  5
472
330
502
100
AcDbEntity
  8
DATA
  6
Continuous
 62
     7
100
AcDbLine
 10
-863.8317309616587
 20
88.48942015264373
 30
0.0
 11
-824.2615057221978
 21
89.22724133595188
 31
0.0
  0
LINE
  5
473
330
502
100
AcDbEntity
  8
DATA
  6
Continuous
 62
     7
100
AcDbLine
 10
-835.1855902301432
 20
38.87284896486273
 30
0.0
 11
-814.7615057221955
 21
72.77275866404902
 31
0.0
  0
LINE
  5
474
330
502
100
AcDbEntity
  8
DATA
  6
STYLE_06
 62
     7
100
AcDbLine
 10
-699.9999999999509
 20
-649.9999999999996
 30
0.0
 11
-699.9999999999509
 21
-1149.999999999999
 31
0.0
  0
CIRCLE
  5
475
330
502
100
AcDbEntity
  8
DATA
  6
Continuous
 62
     7
100
AcDbCircle
 10
800.0
 20
-500.0
 30
0.0
 40
214.2000000000016
  0
CIRCLE
  5
476
330
502
100
AcDbEntity
  8
DATA
  6
Continuous
 62
     7
100
AcDbCircle
 10
800.0
 20
-500.0
 30
0.0
 40
270.0
  0
LINE
  5
477
330
502
100
AcDbEntity
  8
DATA
  6
Continuous
 62
     7
100
AcDbLine
 10
701.0
 20
-518.0
 30
0.0
 11
899.0
 21
-518.0
 31
0.0
  0
LINE
  5
478
330
502
100
AcDbEntity
  8
DATA
  6
Continuous
 62
     7
100
AcDbLine
 10
1220.299999999998
 20
-464.0
 30
0.0
 11
1220.299999999998
 21
-536.0
 31
0.0
  0
LINE
  5
479
330
502
100
AcDbEntity
  8
DATA
  6
Continuous
 62
     7
100
AcDbLine
 10
1112.299999999998
 20
-500.0
 30
0.0
 11
1220.299999999998
 21
-464.0
 31
0.0
  0
LINE
  5
47A
330
502
100
AcDbEntity
  8
DATA
  6
Continuous
 62
     7
100
AcDbLine
 10
1112.299999999998
 20
-500.0
 30
0.0
 11
1220.299999999998
 21
-536.0
 31
0.0
  0
LINE
  5
47B
330
502
100
AcDbEntity
  8
DATA
  6
Continuous
 62
     7
100
AcDbLine
 10
379.7000000000016
 20
-464.0
 30
0.0
 11
379.7000000000016
 21
-536.0
 31
0.0
  0
LINE
  5
47C
330
502
100
AcDbEntity
  8
DATA
  6
Continuous
 62
     7
100
AcDbLine
 10
487.7000000000015
 20
-500.0
 30
0.0
 11
379.7000000000016
 21
-464.0
 31
0.0
  0
LINE
  5
47D
330
502
100
AcDbEntity
  8
DATA
  6
Continuous
 62
     7
100
AcDbLine
 10
487.7000000000015
 20
-500.0
 30
0.0
 11
379.7000000000016
 21
-536.0
 31
0.0
  0
LINE
  5
47E
330
502
100
AcDbEntity
  8
DATA
  6
Continuous
 62
     7
100
AcDbLine
 10
701.0
 20
-482.0
 30
0.0
 11
899.0
 21
-482.0
 31
0.0
  0
LINE
  5
47F
330
502
100
AcDbEntity
  8
DATA
  6
Continuous
 62
     7
100
AcDbLine
 10
899.0
 20
-482.0
 30
0.0
 11
899.0
 21
-518.0
 31
0.0
  0
LINE
  5
480
330
502
100
AcDbEntity
  8
DATA
  6
Continuous
 62
     7
100
AcDbLine
 10
701.0
 20
-482.0
 30
0.0
 11
701.0
 21
-518.0
 31
0.0
  0
TEXT
  5
481
330
502
100
AcDbEntity
  8
DATA
 62
     7
100
AcDbText
 10
921.6413818885252
 20
-535.0601497843712
 30
0.0
 40
29.319140625
  1
8Ω
 50
349.7
 41
0.7
 72
     1
 11
943.109032539912
 21
-524.0618050535521
 31
0.0
100
AcDbText
 73
     2
  0
TEXT
  5
482
330
502
100
AcDbEntity
  8
DATA
 62
     7
100
AcDbText
 10
883.4196707234543
 20
-587.4566257782581
 30
0.0
 40
29.319140625
  1
60
 50
319.7
 41
0.7
 72
     1
 11
904.6407404780996
 21
-586.2319790366142
 31
0.0
100
AcDbText
 73
     2
  0
TEXT
  5
483
330
502
100
AcDbEntity
  8
DATA
 62
     7
100
AcDbText
 10
828.5152411327128
 20
-617.4494950149683
 30
0.0
 40
29.319140625
  1
30
 50
289.7
 41
0.7
 72
     1
 11
847.5055500065392
 21
-626.9994547033654
 31
0.0
100
AcDbText
 73
     2
  0
TEXT
  5
484
330
502
100
AcDbEntity
  8
DATA
 62
     7
100
AcDbText
 10
765.6643732832868
 20
-617.6545889651566
 30
0.0
 40
29.319140625
  1
15
 50
259.7
 41
0.7
 72
     1
 11
777.6412857747299
 21
-633.7375290431555
 31
0.0
100
AcDbText
 73
     2
  0
TEXT
  5
485
330
502
100
AcDbEntity
  8
DATA
 62
     7
100
AcDbText
 10
709.7012836386641
 20
-586.7709489076519
 30
0.0
 40
29.319140625
  1
7.5
 50
229.7
 41
0.7
 72
     1
 11
707.6073492927591
 21
-611.9051551637991
 31
0.0
100
AcDbText
 73
     2
  0
TEXT
  5
486
330
502
100
AcDbEntity
  8
DATA
 62
     7
100
AcDbText
 10
635.4233128365434
 20
-486.9365389554022
 30
0.0
 40
29.319140625
  1
8Ω
 50
349.7000000000001
 41
0.7
 72
     1
 11
656.8909634879302
 21
-475.938194224583
 31
0.0
100
AcDbText
 73
     2
  0
TEXT
  5
487
330
502
100
AcDbEntity
  8
DATA
 62
     7
100
AcDbText
 10
712.1454412415102
 20
-408.7823156558489
 30
0.0
 40
29.319140625
  1
○
 50
139.6999999999999
 41
0.7
 72
     1
 11
695.3592595219003
 21
-413.7680209633816
 31
0.0
100
AcDbText
 73
     2
  0
TEXT
  5
488
330
502
100
AcDbEntity
  8
DATA
 62
     7
100
AcDbText
 10
733.5041407794025
 20
-363.4505846580059
 30
0.0
 40
29.319140625
  1
60
 50
289.7
 41
0.7
 72
     1
 11
752.494449653229
 21
-373.0005443464031
 31
0.0
100
AcDbText
 73
     2
  0
TEXT
  5
489
330
502
100
AcDbEntity
  8
DATA
 62
     7
100
AcDbText
 10
810.6876043394844
 20
-348.4968078316238
 30
0.0
 40
29.319140625
  1
30
 50
259.7
 41
0.7
 72
     1
 11
822.3587144057326
 21
-366.2624699638064
 31
0.0
100
AcDbText
 73
     2
  0
TEXT
  5
48A
330
502
100
AcDbEntity
  8
DATA
 62
     7
100
AcDbText
 10
883.9011392519292
 20
-375.4425678313265
 30
0.0
 40
29.319140625
  1
15
 50
229.7
 41
0.7
 72
     1
 11
886.2319796894228
 21
-395.3592587521379
 31
0.0
100
AcDbText
 73
     2
  0
TEXT
  5
48B
330
502
100
AcDbEntity
  8
DATA
 62
     7
100
AcDbText
 10
760.3501835282692
 20
-560.0018751579114
 30
0.0
 40
29.319140625
  1
70V
 41
0.7
 72
     1
 11
789.4249979813942
 21
-545.3423048454115
 31
0.0
100
AcDbText
 73
     2
  0
TEXT
  5
48C
330
502
100
AcDbEntity
  8
DATA
 62
     7
100
AcDbText
 10
833.1556630531993
 20
-439.9981248420884
 30
0.0
 40
29.319140625
  1
100V
 50
180.0
 41
0.7
 72
     1
 11
798.9499989906994
 21
-454.6576951545884
 31
0.0
100
AcDbText
 73
     2
  0
TEXT
  5
48D
330
502
100
AcDbEntity
  8
DATA
 62
     7
100
AcDbText
 10
616.6196343315974
 20
-875.3605143229165
 30
0.0
 40
40.72102864583334
  1
入力選択スイッチ拡大図
 41
0.7
 72
     1
 11
800.0000000000001
 21
-855.0
 31
0.0
100
AcDbText
 73
     2
  0
LINE
  5
48E
330
502
100
AcDbEntity
  8
DATA
  6
STYLE_06
 62
     7
100
AcDbLine
 10
-949.9999999999509
 20
-899.9999999999996
 30
0.0
 11
-449.9999999999509
 21
-899.9999999999996
 31
0.0
  0
TEXT
  5
48F
330
502
100
AcDbEntity
  8
DATA
 62
     7
100
AcDbText
 10
560.0747840213773
 20
-1678.900565
 30
0.0
 40
28.50472005208333
  1
地面設置用同軸2-Wayフルレンジ・スピーカー
 41
0.7
 11
560.0747840213773
 21
-1650.395844947917
 31
0.0
100
AcDbText
 73
     3
  0
LINE
  5
490
330
502
100
AcDbEntity
  8
DATA
  6
STYLE_06
 62
     7
100
AcDbLine
 10
-916.5063509460606
 20
-1025.0
 30
0.0
 11
-483.4936490538413
 21
-774.9999999999995
 31
0.0
  0
LINE
  5
491
330
502
100
AcDbEntity
  8
DATA
  6
STYLE_06
 62
     7
100
AcDbLine
 10
-483.4936490538412
 20
-1025.0
 30
0.0
 11
-916.5063509460606
 21
-774.9999999999995
 31
0.0
  0
ENDSEC
  0
SECTION
  2
OBJECTS
  0
DICTIONARY
  5
49F
330
0
100
AcDbDictionary
281
     1
  3
ACAD_CIP_PREVIOUS_PRODUCT_INFO
350
51B
  3
ACAD_COLOR
350
4F5
  3
ACAD_DETAILVIEWSTYLE
350
4FC
  3
ACAD_GROUP
350
4A0
  3
ACAD_LAYOUT
350
4F4
  3
ACAD_MATERIAL
350
4A3
  3
ACAD_MLEADERSTYLE
350
4F8
  3
ACAD_MLINESTYLE
350
4F1
  3
ACAD_PLOTSETTINGS
350
4F3
  3
ACAD_PLOTSTYLENAME
350
4A1
  3
ACAD_SCALELIST
350
4D5
  3
ACAD_SECTIONVIEWSTYLE
350
4FA
  3
ACAD_TABLESTYLE
350
4F6
  3
ACAD_VISUALSTYLE
350
4BC
  3
ACDB_RECOMPOSE_DATA
350
533
  3
AcDbVariableDictionary
350
526
  3
DWGPROPS
350
534
  0
DICTIONARY
  5
51C
330
4E7
100
AcDbDictionary
280
     1
281
     1
  3
ADSK_XREC_LAYER_RECONCILED
360
51D
  0
DICTIONARY
  5
51E
330
506
100
AcDbDictionary
280
     1
281
     1
  3
ADSK_XREC_LAYER_RECONCILED
360
51F
  0
DICTIONARY
  5
520
330
513
100
AcDbDictionary
280
     1
281
     1
  3
ADSK_XREC_LAYER_RECONCILED
360
521
  0
DICTIONARY
  5
522
330
514
100
AcDbDictionary
280
     1
281
     1
  3
ADSK_XREC_LAYER_RECONCILED
360
523
  0
DICTIONARY
  5
524
330
515
100
AcDbDictionary
280
     1
281
     1
  3
ADSK_XREC_LAYER_RECONCILED
360
525
  0
XRECORD
  5
51B
102
{ACAD_REACTORS
330
49F
102
}
330
49F
100
AcDbXrecord
280
     1
300
ACDLT
300
2017
300
ACDLT_F_S
  0
DICTIONARY
  5
4F5
102
{ACAD_REACTORS
330
49F
102
}
330
49F
100
AcDbDictionary
281
     1
  0
DICTIONARY
  5
4FC
102
{ACAD_REACTORS
330
49F
102
}
330
49F
100
AcDbDictionary
281
     1
  3
Imperial24
350
4FD
  0
DICTIONARY
  5
4A0
102
{ACAD_REACTORS
330
49F
102
}
330
49F
100
AcDbDictionary
281
     1
  0
DICTIONARY
  5
4F4
102
{ACAD_REACTORS
330
49F
102
}
330
49F
100
AcDbDictionary
281
     1
  3
Model
350
505
  3
レイアウト1
350
501
  0
DICTIONARY
  5
4A3
102
{ACAD_REACTORS
330
49F
102
}
330
49F
100
AcDbDictionary
281
     1
  3
ByBlock
350
4AC
  3
ByLayer
350
4A4
  3
Global
350
4B4
  0
DICTIONARY
  5
4F8
102
{ACAD_REACTORS
330
49F
102
}
330
49F
100
AcDbDictionary
281
     1
  3
Standard
350
4F9
  0
DICTIONARY
  5
4F1
102
{ACAD_REACTORS
330
49F
102
}
330
49F
100
AcDbDictionary
281
     1
  3
Standard
350
4F2
  0
DICTIONARY
  5
4F3
102
{ACAD_REACTORS
330
49F
102
}
330
49F
100
AcDbDictionary
281
     1
  0
ACDBDICTIONARYWDFLT
  5
4A1
102
{ACAD_REACTORS
330
49F
102
}
330
49F
100
AcDbDictionary
281
     1
  3
Normal
350
4A2
100
AcDbDictionaryWithDefault
340
4A2
  0
DICTIONARY
  5
4D5
102
{ACAD_REACTORS
330
49F
102
}
330
49F
100
AcDbDictionary
281
     1
  3
A0
350
4D6
  3
A1
350
4D7
  3
A2
350
4D8
  3
A3
350
4D9
  3
A4
350
4DA
  3
A5
350
4DB
  3
A6
350
4DC
  3
A7
350
4DD
  3
A8
350
4DE
  3
A9
350
4DF
  3
B0
350
4E0
  3
B1
350
4E1
  3
B2
350
4E2
  3
B3
350
4E3
  3
B4
350
4E4
  3
B5
350
4E5
  3
B6
350
4E6
  0
DICTIONARY
  5
4FA
102
{ACAD_REACTORS
330
49F
102
}
330
49F
100
AcDbDictionary
281
     1
  3
Imperial24
350
4FB
  0
DICTIONARY
  5
4F6
102
{ACAD_REACTORS
330
49F
102
}
330
49F
100
AcDbDictionary
281
     1
  3
Standard
350
4F7
  0
DICTIONARY
  5
4BC
102
{ACAD_REACTORS
330
49F
102
}
330
49F
100
AcDbDictionary
281
     1
  3
2dWireframe
350
4C2
  3
Basic
350
4C1
  3
Brighten
350
4C8
  3
ColorChange
350
4CC
  3
Conceptual
350
4C5
  3
Dim
350
4C7
  3
EdgeColorOff
350
4D4
  3
Facepattern
350
4CB
  3
Flat
350
4BD
  3
FlatWithEdges
350
4BE
  3
Gouraud
350
4BF
  3
GouraudWithEdges
350
4C0
  3
Hidden
350
4C4
  3
JitterOff
350
4D2
  3
Linepattern
350
4CA
  3
OverhangOff
350
4D3
  3
Realistic
350
4C6
  3
Shaded
350
4D1
  3
Shaded with edges
350
4D0
  3
Shades of Gray
350
4CD
  3
Sketchy
350
4CE
  3
Thicken
350
4C9
  3
Wireframe
350
4C3
  3
X-Ray
350
4CF
  0
XRECORD
  5
533
102
{ACAD_REACTORS
330
49F
102
}
330
49F
100
AcDbXrecord
280
     1
 90
        1
330
4F7
  0
DICTIONARY
  5
526
102
{ACAD_REACTORS
330
49F
102
}
330
49F
100
AcDbDictionary
281
     1
  3
CANNOSCALE
350
52B
  3
CMLEADERSTYLE
350
528
  3
CTABLESTYLE
350
527
  3
CVIEWDETAILSTYLE
350
529
  3
CVIEWSECTIONSTYLE
350
52A
  3
DIMASSOC
350
52E
  3
INDEXCTL
350
52D
  3
SORTENTS
350
52C
  3
XCLIPFRAME
350
52F
  0
XRECORD
  5
534
102
{ACAD_REACTORS
330
49F
102
}
330
49F
100
AcDbXrecord
280
     1
  1
DWGPROPS COOKIE
  2

  3

  4

  6

  7

  8
sasaki_n
  9

300
=
301
=
302
=
303
=
304
=
305
=
306
=
307
=
308
=
309
=
 40
0.0002893518518519
 41
2457812.596793981
 42
2457812.671898148
  1

 90
        0
  0
XRECORD
  5
51D
102
{ACAD_REACTORS
330
51C
102
}
330
51C
100
AcDbXrecord
280
     1
290
     1
  0
XRECORD
  5
51F
102
{ACAD_REACTORS
330
51E
102
}
330
51E
100
AcDbXrecord
280
     1
290
     1
  0
XRECORD
  5
521
102
{ACAD_REACTORS
330
520
102
}
330
520
100
AcDbXrecord
280
     1
290
     1
  0
XRECORD
  5
523
102
{ACAD_REACTORS
330
522
102
}
330
522
100
AcDbXrecord
280
     1
290
     1
  0
XRECORD
  5
525
102
{ACAD_REACTORS
330
524
102
}
330
524
100
AcDbXrecord
280
     1
290
     1
  0
ACDBDETAILVIEWSTYLE
  5
4FD
102
{ACAD_XDICTIONARY
360
56C
102
}
102
{ACAD_REACTORS
330
4FC
102
}
330
4FC
100
AcDbModelDocViewStyle
 70
     0
  3
Imperial24
290
     0
100
AcDbDetailViewStyle
 70
     0
 71
     0
 90
        3
 71
     1
340
4E8
 40
0.24
340
0
 40
0.24
300

 40
0.36
280
     3
 71
     2
340
4EF
 90
       25
 71
     3
340
4E8
 40
0.24
 90
        1
 40
0.75
 90
        1
300
%<\AcVar ViewType \f "%tc1">% %<\AcVar ViewDetailId>%\PSCALE %<\AcVar ViewScale \f "%sn">%
 71
     4
340
4EF
 90
       25
340
4EF
 90
       25
280
     0
  0
LAYOUT
  5
505
102
{ACAD_XDICTIONARY
360
570
102
}
102
{ACAD_REACTORS
330
4F4
102
}
330
4F4
100
AcDbPlotSettings
  1

  2
DocuPrint 3000-2
  4

  6

 40
0.0
 41
0.0
 42
0.0
 43
0.0
 44
0.0
 45
0.0
 46
0.0
 47
0.0
 48
0.0
 49
0.0
140
0.0
141
0.0
142
1.0
143
1.0
 70
  1712
 72
     0
 73
     0
 74
     0
  7

 75
     0
147
1.0
148
0.0
149
0.0
100
AcDbLayout
  1
Model
 70
     1
 71
     0
 10
0.0
 20
0.0
 11
12.0
 21
9.0
 12
0.0
 22
0.0
 32
0.0
 14
0.0
 24
0.0
 34
0.0
 15
0.0
 25
0.0
 35
0.0
146
0.0
 13
0.0
 23
0.0
 33
0.0
 16
1.0
 26
0.0
 36
0.0
 17
0.0
 27
1.0
 37
0.0
 76
     0
330
502
331
507
  0
LAYOUT
  5
501
102
{ACAD_XDICTIONARY
360
56E
102
}
102
{ACAD_REACTORS
330
4F4
102
}
330
4F4
100
AcDbPlotSettings
  1

  2
DocuPrint 3000-2
  4

  6

 40
0.0
 41
0.0
 42
0.0
 43
0.0
 44
0.0
 45
0.0
 46
0.0
 47
0.0
 48
0.0
 49
0.0
140
0.0
141
0.0
142
1.0
143
1.0
 70
   688
 72
     0
 73
     0
 74
     5
  7

 75
    16
147
1.0
148
0.0
149
0.0
100
AcDbLayout
  1
レイアウト1
 70
     0
 71
     1
 10
0.0
 20
0.0
 11
12.0
 21
9.0
 12
0.0
 22
0.0
 32
0.0
 14
1.000000000000000E+20
 24
1.000000000000000E+20
 34
1.000000000000000E+20
 15
-1.000000000000000E+20
 25
-1.000000000000000E+20
 35
-1.000000000000000E+20
146
0.0
 13
0.0
 23
0.0
 33
0.0
 16
1.0
 26
0.0
 36
0.0
 17
0.0
 27
1.0
 37
0.0
 76
     0
330
4FE
  0
MATERIAL
  5
4AC
102
{ACAD_XDICTIONARY
360
4AD
102
}
102
{ACAD_REACTORS
330
4A3
102
}
330
4A3
100
AcDbMaterial
  1
ByBlock
 72
     0
 43
0.0208333333333333
 43
0.0
 43
0.0
 43
0.0
 43
0.0
 43
0.0208333333333333
 43
0.0
 43
0.0
 43
0.0
 43
0.0
 43
1.0
 43
0.0
 43
0.0
 43
0.0
 43
0.0
 43
1.0
 77
     0
 47
0.0208333333333333
 47
0.0
 47
0.0
 47
0.0
 47
0.0
 47
0.0208333333333333
 47
0.0
 47
0.0
 47
0.0
 47
0.0
 47
1.0
 47
0.0
 47
0.0
 47
0.0
 47
0.0
 47
1.0
171
     0
 49
0.0208333333333333
 49
0.0
 49
0.0
 49
0.0
 49
0.0
 49
0.0208333333333333
 49
0.0
 49
0.0
 49
0.0
 49
0.0
 49
1.0
 49
0.0
 49
0.0
 49
0.0
 49
0.0
 49
1.0
175
     0
142
0.0208333333333333
142
0.0
142
0.0
142
0.0
142
0.0
142
0.0208333333333333
142
0.0
142
0.0
142
0.0
142
0.0
142
1.0
142
0.0
142
0.0
142
0.0
142
0.0
142
1.0
179
     0
144
0.0208333333333333
144
0.0
144
0.0
144
0.0
144
0.0
144
0.0208333333333333
144
0.0
144
0.0
144
0.0
144
0.0
144
1.0
144
0.0
144
0.0
144
0.0
144
0.0
144
1.0
147
0.0208333333333333
147
0.0
147
0.0
147
0.0
147
0.0
147
0.0208333333333333
147
0.0
147
0.0
147
0.0
147
0.0
147
1.0
147
0.0
147
0.0
147
0.0
147
0.0
147
1.0
  0
MATERIAL
  5
4A4
102
{ACAD_XDICTIONARY
360
4A5
102
}
102
{ACAD_REACTORS
330
4A3
102
}
330
4A3
100
AcDbMaterial
  1
ByLayer
 72
     0
 43
0.0208333333333333
 43
0.0
 43
0.0
 43
0.0
 43
0.0
 43
0.0208333333333333
 43
0.0
 43
0.0
 43
0.0
 43
0.0
 43
1.0
 43
0.0
 43
0.0
 43
0.0
 43
0.0
 43
1.0
 77
     0
 47
0.0208333333333333
 47
0.0
 47
0.0
 47
0.0
 47
0.0
 47
0.0208333333333333
 47
0.0
 47
0.0
 47
0.0
 47
0.0
 47
1.0
 47
0.0
 47
0.0
 47
0.0
 47
0.0
 47
1.0
171
     0
 49
0.0208333333333333
 49
0.0
 49
0.0
 49
0.0
 49
0.0
 49
0.0208333333333333
 49
0.0
 49
0.0
 49
0.0
 49
0.0
 49
1.0
 49
0.0
 49
0.0
 49
0.0
 49
0.0
 49
1.0
175
     0
142
0.0208333333333333
142
0.0
142
0.0
142
0.0
142
0.0
142
0.0208333333333333
142
0.0
142
0.0
142
0.0
142
0.0
142
1.0
142
0.0
142
0.0
142
0.0
142
0.0
142
1.0
179
     0
144
0.0208333333333333
144
0.0
144
0.0
144
0.0
144
0.0
144
0.0208333333333333
144
0.0
144
0.0
144
0.0
144
0.0
144
1.0
144
0.0
144
0.0
144
0.0
144
0.0
144
1.0
147
0.0208333333333333
147
0.0
147
0.0
147
0.0
147
0.0
147
0.0208333333333333
147
0.0
147
0.0
147
0.0
147
0.0
147
1.0
147
0.0
147
0.0
147
0.0
147
0.0
147
1.0
  0
MATERIAL
  5
4B4
102
{ACAD_XDICTIONARY
360
4B5
102
}
102
{ACAD_REACTORS
330
4A3
102
}
330
4A3
100
AcDbMaterial
  1
Global
 72
     0
 43
0.0208333333333333
 43
0.0
 43
0.0
 43
0.0
 43
0.0
 43
0.0208333333333333
 43
0.0
 43
0.0
 43
0.0
 43
0.0
 43
1.0
 43
0.0
 43
0.0
 43
0.0
 43
0.0
 43
1.0
 77
     0
 47
0.0208333333333333
 47
0.0
 47
0.0
 47
0.0
 47
0.0
 47
0.0208333333333333
 47
0.0
 47
0.0
 47
0.0
 47
0.0
 47
1.0
 47
0.0
 47
0.0
 47
0.0
 47
0.0
 47
1.0
171
     0
 49
0.0208333333333333
 49
0.0
 49
0.0
 49
0.0
 49
0.0
 49
0.0208333333333333
 49
0.0
 49
0.0
 49
0.0
 49
0.0
 49
1.0
 49
0.0
 49
0.0
 49
0.0
 49
0.0
 49
1.0
175
     0
142
0.0208333333333333
142
0.0
142
0.0
142
0.0
142
0.0
142
0.0208333333333333
142
0.0
142
0.0
142
0.0
142
0.0
142
1.0
142
0.0
142
0.0
142
0.0
142
0.0
142
1.0
179
     0
144
0.0208333333333333
144
0.0
144
0.0
144
0.0
144
0.0
144
0.0208333333333333
144
0.0
144
0.0
144
0.0
144
0.0
144
1.0
144
0.0
144
0.0
144
0.0
144
0.0
144
1.0
147
0.0208333333333333
147
0.0
147
0.0
147
0.0
147
0.0
147
0.0208333333333333
147
0.0
147
0.0
147
0.0
147
0.0
147
1.0
147
0.0
147
0.0
147
0.0
147
0.0
147
1.0
  0
MLEADERSTYLE
  5
4F9
102
{ACAD_REACTORS
330
4F8
102
}
330
4F8
100
AcDbMLeaderStyle
170
     2
171
     1
172
     0
 90
        2
 40
0.0
 41
0.0
173
     1
 91
-1056964608
340
4ED
 92
       -2
290
     1
 42
0.09
291
     1
 43
0.36
  3
Standard
 44
0.18
300

342
4E8
174
     1
178
     6
175
     1
176
     0
 93
-1056964608
 45
0.18
292
     0
297
     0
 46
0.18
 94
-1056964608
 47
1.0
 49
1.0
140
1.0
293
     1
141
0.0
294
     1
177
     0
142
1.0
295
     0
296
     0
143
0.125
1001
ACAD_MLEADERVER
1070
     2
  0
MLINESTYLE
  5
4F2
102
{ACAD_REACTORS
330
4F1
102
}
330
4F1
100
AcDbMlineStyle
  2
STANDARD
 70
     0
  3

 62
   256
 51
90.0
 52
90.0
 71
     2
 49
0.5
 62
   256
  6
BYLAYER
 49
-0.5
 62
   256
  6
BYLAYER
  0
ACDBPLACEHOLDER
  5
4A2
102
{ACAD_REACTORS
330
4A1
102
}
330
4A1
  0
SCALE
  5
4D6
102
{ACAD_REACTORS
330
4D5
102
}
330
4D5
100
AcDbScale
 70
     0
300
1:1
140
1.0
141
1.0
290
     1
  0
SCALE
  5
4D7
102
{ACAD_REACTORS
330
4D5
102
}
330
4D5
100
AcDbScale
 70
     0
300
1/128" = 1'-0"
140
0.0078125
141
12.0
290
     0
  0
SCALE
  5
4D8
102
{ACAD_REACTORS
330
4D5
102
}
330
4D5
100
AcDbScale
 70
     0
300
1/64" = 1'-0"
140
0.015625
141
12.0
290
     0
  0
SCALE
  5
4D9
102
{ACAD_REACTORS
330
4D5
102
}
330
4D5
100
AcDbScale
 70
     0
300
1/32" = 1'-0"
140
0.03125
141
12.0
290
     0
  0
SCALE
  5
4DA
102
{ACAD_REACTORS
330
4D5
102
}
330
4D5
100
AcDbScale
 70
     0
300
1/16" = 1'-0"
140
0.0625
141
12.0
290
     0
  0
SCALE
  5
4DB
102
{ACAD_REACTORS
330
4D5
102
}
330
4D5
100
AcDbScale
 70
     0
300
3/32" = 1'-0"
140
0.09375
141
12.0
290
     0
  0
SCALE
  5
4DC
102
{ACAD_REACTORS
330
4D5
102
}
330
4D5
100
AcDbScale
 70
     0
300
1/8" = 1'-0"
140
0.125
141
12.0
290
     0
  0
SCALE
  5
4DD
102
{ACAD_REACTORS
330
4D5
102
}
330
4D5
100
AcDbScale
 70
     0
300
3/16" = 1'-0"
140
0.1875
141
12.0
290
     0
  0
SCALE
  5
4DE
102
{ACAD_REACTORS
330
4D5
102
}
330
4D5
100
AcDbScale
 70
     0
300
1/4" = 1'-0"
140
0.25
141
12.0
290
     0
  0
SCALE
  5
4DF
102
{ACAD_REACTORS
330
4D5
102
}
330
4D5
100
AcDbScale
 70
     0
300
3/8" = 1'-0"
140
0.375
141
12.0
290
     0
  0
SCALE
  5
4E0
102
{ACAD_REACTORS
330
4D5
102
}
330
4D5
100
AcDbScale
 70
     0
300
1/2" = 1'-0"
140
0.5
141
12.0
290
     0
  0
SCALE
  5
4E1
102
{ACAD_REACTORS
330
4D5
102
}
330
4D5
100
AcDbScale
 70
     0
300
3/4" = 1'-0"
140
0.75
141
12.0
290
     0
  0
SCALE
  5
4E2
102
{ACAD_REACTORS
330
4D5
102
}
330
4D5
100
AcDbScale
 70
     0
300
1" = 1'-0"
140
1.0
141
12.0
290
     0
  0
SCALE
  5
4E3
102
{ACAD_REACTORS
330
4D5
102
}
330
4D5
100
AcDbScale
 70
     0
300
1-1/2" = 1'-0"
140
1.5
141
12.0
290
     0
  0
SCALE
  5
4E4
102
{ACAD_REACTORS
330
4D5
102
}
330
4D5
100
AcDbScale
 70
     0
300
3" = 1'-0"
140
3.0
141
12.0
290
     0
  0
SCALE
  5
4E5
102
{ACAD_REACTORS
330
4D5
102
}
330
4D5
100
AcDbScale
 70
     0
300
6" = 1'-0"
140
6.0
141
12.0
290
     0
  0
SCALE
  5
4E6
102
{ACAD_REACTORS
330
4D5
102
}
330
4D5
100
AcDbScale
 70
     0
300
1'-0" = 1'-0"
140
12.0
141
12.0
290
     0
  0
ACDBSECTIONVIEWSTYLE
  5
4FB
102
{ACAD_XDICTIONARY
360
56A
102
}
102
{ACAD_REACTORS
330
4FA
102
}
330
4FA
100
AcDbModelDocViewStyle
 70
     0
  3
Imperial24
290
     0
100
AcDbSectionViewStyle
 70
     0
 71
     0
 90
       78
 71
     1
340
4E8
 40
0.24
340
0
340
0
 40
0.24
300
I, O, Q, S, X, Z
 40
0.48
 90
        3
 40
0.18
 90
        1
 71
     2
340
4EF
 90
       25
340
4EF
 90
       50
 40
0.24
 40
0.0
 40
0.24
 71
     3
340
4E8
 40
0.24
 90
        1
 40
0.75
 90
        1
300
%<\AcVar ViewType \f "%tc1">% %<\AcVar ViewSectionStartId>%-%<\AcVar ViewSectionEndId>%\PSCALE %<\AcVar ViewScale \f "%sn">%
 71
     4
300
ANSI31
 40
1.0
 90
        0
290
     0
290
     0
 90
        6
 40
0.0
 40
1.570796326794896
 40
0.2617993877991494
 40
1.308996938995747
 40
-0.2617993877991494
 40
1.832595714594046
  0
TABLESTYLE
  5
4F7
102
{ACAD_XDICTIONARY
360
531
102
}
102
{ACAD_REACTORS
330
4F6
102
}
330
4F6
100
AcDbTableStyle
  3
Standard
 70
     0
 71
     0
 40
0.06
 41
0.06
280
     0
281
     0
  7
STANDARD
140
0.18
170
     2
 62
     0
 63
     7
283
     0
274
    -2
284
     1
 64
     0
275
    -2
285
     1
 65
     0
276
    -2
286
     1
 66
     0
277
    -2
287
     1
 67
     0
278
    -2
288
     1
 68
     0
279
    -2
289
     1
 69
     0
  7
STANDARD
140
0.25
170
     5
 62
     0
 63
     7
283
     0
274
    -2
284
     1
 64
     0
275
    -2
285
     1
 65
     0
276
    -2
286
     1
 66
     0
277
    -2
287
     1
 67
     0
278
    -2
288
     1
 68
     0
279
    -2
289
     1
 69
     0
  7
STANDARD
140
0.18
170
     5
 62
     0
 63
     7
283
     0
274
    -2
284
     1
 64
     0
275
    -2
285
     1
 65
     0
276
    -2
286
     1
 66
     0
277
    -2
287
     1
 67
     0
278
    -2
288
     1
 68
     0
279
    -2
289
     1
 69
     0
  0
VISUALSTYLE
  5
4C2
102
{ACAD_XDICTIONARY
360
542
102
}
102
{ACAD_REACTORS
330
4BC
102
}
330
4BC
100
AcDbVisualStyle
  2
2dWireframe
 70
     4
 71
     0
 72
     2
 73
     0
 90
        0
 40
-0.6
 41
-30.0
 62
     5
 63
     7
 74
     1
 91
        4
 64
     7
 65
   257
 75
     1
175
     1
 42
1.0
 92
        0
 66
   257
 43
1.0
 76
     1
 77
     6
 78
     2
 67
     7
 79
     5
170
     0
171
     0
290
     0
174
     0
 93
        1
 44
0.0
173
     0
291
     0
 45
0.0
1001
ACAD
1000
AcDbSavedByObjectVersion
1070
     0
  0
VISUALSTYLE
  5
4C1
102
{ACAD_XDICTIONARY
360
540
102
}
102
{ACAD_REACTORS
330
4BC
102
}
330
4BC
100
AcDbVisualStyle
  2
Basic
 70
     7
 71
     1
 72
     0
 73
     1
 90
        0
 40
-0.6
 41
-30.0
 62
     5
 63
     7
 74
     0
 91
        4
 64
     7
 65
   257
 75
     1
175
     1
 42
1.0
 92
        8
 66
     7
 43
1.0
 76
     1
 77
     6
 78
     2
 67
     7
 79
     5
170
     0
171
     0
290
     0
174
     0
 93
        1
 44
0.0
173
     0
291
     1
 45
0.0
1001
ACAD
1000
AcDbSavedByObjectVersion
1070
     0
  0
VISUALSTYLE
  5
4C8
102
{ACAD_XDICTIONARY
360
54E
102
}
102
{ACAD_REACTORS
330
4BC
102
}
330
4BC
100
AcDbVisualStyle
  2
Brighten
 70
    12
 71
     2
 72
     2
 73
     0
 90
        0
 40
-0.6
 41
-30.0
 62
     5
 63
     7
 74
     1
 91
        4
 64
     7
 65
   257
 75
     1
175
     1
 42
1.0
 92
        8
 66
     7
 43
1.0
 76
     1
 77
     6
 78
     2
 67
     7
 79
     5
170
     0
171
     0
290
     0
174
     0
 93
        1
 44
50.0
173
     0
291
     1
 45
0.0
1001
ACAD
1000
AcDbSavedByObjectVersion
1070
     0
  0
VISUALSTYLE
  5
4CC
102
{ACAD_XDICTIONARY
360
556
102
}
102
{ACAD_REACTORS
330
4BC
102
}
330
4BC
100
AcDbVisualStyle
  2
ColorChange
 70
    16
 71
     2
 72
     2
 73
     3
 90
        0
 40
-0.6
 41
-30.0
 62
     5
 63
     8
 74
     1
 91
        4
 64
     7
 65
   257
 75
     1
175
     1
 42
1.0
 92
        8
 66
     8
 43
1.0
 76
     1
 77
     6
 78
     2
 67
     7
 79
     5
170
     0
171
     0
290
     0
174
     0
 93
        1
 44
0.0
173
     0
291
     1
 45
0.0
1001
ACAD
1000
AcDbSavedByObjectVersion
1070
     0
  0
VISUALSTYLE
  5
4C5
102
{ACAD_XDICTIONARY
360
548
102
}
102
{ACAD_REACTORS
330
4BC
102
}
330
4BC
100
AcDbVisualStyle
  2
Conceptual
 70
     9
 71
     3
 72
     2
 73
     0
 90
        0
 40
-0.6
 41
-30.0
 62
     5
 63
     7
 74
     2
 91
        2
 64
     7
 65
   257
 75
     1
175
     1
 42
179.0
 92
        8
 66
     7
 43
1.0
 76
     1
 77
     6
 78
     2
 67
     7
 79
     3
170
     0
171
     0
290
     0
174
     0
 93
        1
 44
0.0
173
     0
291
     0
 45
0.0
1001
ACAD
1000
AcDbSavedByObjectVersion
1070
     0
  0
VISUALSTYLE
  5
4C7
102
{ACAD_XDICTIONARY
360
54C
102
}
102
{ACAD_REACTORS
330
4BC
102
}
330
4BC
100
AcDbVisualStyle
  2
Dim
 70
    11
 71
     2
 72
     2
 73
     0
 90
        0
 40
-0.6
 41
-30.0
 62
     5
 63
     7
 74
     1
 91
        4
 64
     7
 65
   257
 75
     1
175
     1
 42
1.0
 92
        8
 66
     7
 43
1.0
 76
     1
 77
     6
 78
     2
 67
     7
 79
     5
170
     0
171
     0
290
     0
174
     0
 93
        1
 44
-50.0
173
     0
291
     1
 45
0.0
1001
ACAD
1000
AcDbSavedByObjectVersion
1070
     0
  0
VISUALSTYLE
  5
4D4
102
{ACAD_XDICTIONARY
360
566
102
}
102
{ACAD_REACTORS
330
4BC
102
}
330
4BC
100
AcDbVisualStyle
  2
EdgeColorOff
 70
    22
 71
     2
 72
     2
 73
     0
 90
        0
 40
-0.6
 41
-30.0
 62
     5
 63
     7
 74
     1
 91
        4
 64
     7
 65
   257
 75
     1
175
     1
 42
1.0
 92
        8
 66
     7
 43
1.0
 76
     1
 77
     6
 78
     2
 67
     7
 79
     5
170
     0
171
     0
290
     0
174
     0
 93
        1
 44
0.0
173
     0
291
     1
 45
0.0
1001
ACAD
1000
AcDbSavedByObjectVersion
1070
     0
  0
VISUALSTYLE
  5
4CB
102
{ACAD_XDICTIONARY
360
554
102
}
102
{ACAD_REACTORS
330
4BC
102
}
330
4BC
100
AcDbVisualStyle
  2
Facepattern
 70
    15
 71
     2
 72
     2
 73
     0
 90
        0
 40
-0.6
 41
-30.0
 62
     5
 63
     7
 74
     1
 91
        4
 64
     7
 65
   257
 75
     1
175
     1
 42
1.0
 92
        8
 66
     7
 43
1.0
 76
     1
 77
     6
 78
     2
 67
     7
 79
     5
170
     0
171
     0
290
     0
174
     0
 93
        1
 44
0.0
173
     0
291
     1
 45
0.0
1001
ACAD
1000
AcDbSavedByObjectVersion
1070
     0
  0
VISUALSTYLE
  5
4BD
102
{ACAD_XDICTIONARY
360
538
102
}
102
{ACAD_REACTORS
330
4BC
102
}
330
4BC
100
AcDbVisualStyle
  2
Flat
 70
     0
 71
     2
 72
     1
 73
     1
 90
        2
 40
-0.6
 41
30.0
 62
     5
 63
     7
 74
     0
 91
        0
 64
     7
 65
   257
 75
     1
175
     1
 42
1.0
 92
        8
 66
     7
 43
1.0
 76
     1
 77
     6
 78
     2
 67
     7
 79
     5
170
     0
171
     0
290
     0
174
     0
 93
       13
 44
0.0
173
     0
291
     1
 45
0.0
1001
ACAD
1000
AcDbSavedByObjectVersion
1070
     0
  0
VISUALSTYLE
  5
4BE
102
{ACAD_XDICTIONARY
360
53A
102
}
102
{ACAD_REACTORS
330
4BC
102
}
330
4BC
100
AcDbVisualStyle
  2
FlatWithEdges
 70
     1
 71
     2
 72
     1
 73
     1
 90
        2
 40
-0.6
 41
30.0
 62
     5
 63
     7
 74
     1
 91
        0
 64
     7
 65
   257
 75
     1
175
     1
 42
1.0
 92
        0
 66
   257
 43
1.0
 76
     1
 77
     6
 78
     2
 67
     7
 79
     5
170
     0
171
     0
290
     0
174
     0
 93
       13
 44
0.0
173
     0
291
     1
 45
0.0
1001
ACAD
1000
AcDbSavedByObjectVersion
1070
     0
  0
VISUALSTYLE
  5
4BF
102
{ACAD_XDICTIONARY
360
53C
102
}
102
{ACAD_REACTORS
330
4BC
102
}
330
4BC
100
AcDbVisualStyle
  2
Gouraud
 70
     2
 71
     2
 72
     2
 73
     1
 90
        2
 40
-0.6
 41
30.0
 62
     5
 63
     7
 74
     0
 91
        0
 64
     7
 65
   257
 75
     1
175
     1
 42
1.0
 92
        0
 66
     7
 43
1.0
 76
     1
 77
     6
 78
     2
 67
     7
 79
     5
170
     0
171
     0
290
     0
174
     0
 93
       13
 44
0.0
173
     0
291
     1
 45
0.0
1001
ACAD
1000
AcDbSavedByObjectVersion
1070
     0
  0
VISUALSTYLE
  5
4C0
102
{ACAD_XDICTIONARY
360
53E
102
}
102
{ACAD_REACTORS
330
4BC
102
}
330
4BC
100
AcDbVisualStyle
  2
GouraudWithEdges
 70
     3
 71
     2
 72
     2
 73
     1
 90
        2
 40
-0.6
 41
30.0
 62
     5
 63
     7
 74
     1
 91
        0
 64
     7
 65
   257
 75
     1
175
     1
 42
1.0
 92
        0
 66
   257
 43
1.0
 76
     1
 77
     6
 78
     2
 67
     7
 79
     5
170
     0
171
     0
290
     0
174
     0
 93
       13
 44
0.0
173
     0
291
     1
 45
0.0
1001
ACAD
1000
AcDbSavedByObjectVersion
1070
     0
  0
VISUALSTYLE
  5
4C4
102
{ACAD_XDICTIONARY
360
546
102
}
102
{ACAD_REACTORS
330
4BC
102
}
330
4BC
100
AcDbVisualStyle
  2
Hidden
 70
     6
 71
     1
 72
     2
 73
     2
 90
        0
 40
-0.6
 41
-30.0
 62
     5
 63
     7
 74
     2
 91
        2
 64
     7
 65
   257
 75
     2
175
     1
 42
40.0
 92
        0
 66
   257
 43
1.0
 76
     1
 77
     6
 78
     2
 67
     7
 79
     3
170
     0
171
     0
290
     0
174
     0
 93
        1
 44
0.0
173
     0
291
     0
 45
0.0
1001
ACAD
1000
AcDbSavedByObjectVersion
1070
     0
  0
VISUALSTYLE
  5
4D2
102
{ACAD_XDICTIONARY
360
562
102
}
102
{ACAD_REACTORS
330
4BC
102
}
330
4BC
100
AcDbVisualStyle
  2
JitterOff
 70
    20
 71
     2
 72
     2
 73
     0
 90
        0
 40
-0.6
 41
-30.0
 62
     5
 63
     7
 74
     1
 91
        4
 64
     7
 65
   257
 75
     1
175
     1
 42
1.0
 92
       10
 66
     7
 43
1.0
 76
     1
 77
     6
 78
     2
 67
     7
 79
     5
170
     0
171
     0
290
     0
174
     0
 93
        1
 44
0.0
173
     0
291
     1
 45
0.0
1001
ACAD
1000
AcDbSavedByObjectVersion
1070
     0
  0
VISUALSTYLE
  5
4CA
102
{ACAD_XDICTIONARY
360
552
102
}
102
{ACAD_REACTORS
330
4BC
102
}
330
4BC
100
AcDbVisualStyle
  2
Linepattern
 70
    14
 71
     2
 72
     2
 73
     0
 90
        0
 40
-0.6
 41
-30.0
 62
     5
 63
     7
 74
     1
 91
        4
 64
     7
 65
   257
 75
     7
175
     7
 42
1.0
 92
        8
 66
     7
 43
1.0
 76
     1
 77
     6
 78
     2
 67
     7
 79
     5
170
     0
171
     0
290
     0
174
     0
 93
        1
 44
0.0
173
     0
291
     1
 45
0.0
1001
ACAD
1000
AcDbSavedByObjectVersion
1070
     0
  0
VISUALSTYLE
  5
4D3
102
{ACAD_XDICTIONARY
360
564
102
}
102
{ACAD_REACTORS
330
4BC
102
}
330
4BC
100
AcDbVisualStyle
  2
OverhangOff
 70
    21
 71
     2
 72
     2
 73
     0
 90
        0
 40
-0.6
 41
-30.0
 62
     5
 63
     7
 74
     1
 91
        4
 64
     7
 65
   257
 75
     1
175
     1
 42
1.0
 92
        9
 66
     7
 43
1.0
 76
     1
 77
     6
 78
     2
 67
     7
 79
     5
170
     0
171
     0
290
     0
174
     0
 93
        1
 44
0.0
173
     0
291
     1
 45
0.0
1001
ACAD
1000
AcDbSavedByObjectVersion
1070
     0
  0
VISUALSTYLE
  5
4C6
102
{ACAD_XDICTIONARY
360
54A
102
}
102
{ACAD_REACTORS
330
4BC
102
}
330
4BC
100
AcDbVisualStyle
  2
Realistic
 70
     8
 71
     2
 72
     3
 73
     0
 90
        2
 40
-0.6
 41
30.0
 62
     5
 63
     7
 74
     0
 91
        0
 64
     7
 65
   257
 75
     1
175
     1
 42
1.0
 92
        8
 66
   257
 43
1.0
 76
     1
 77
     6
 78
     2
 67
     7
 79
     3
170
     0
171
     0
290
     0
174
     0
 93
       13
 44
0.0
173
     0
291
     0
 45
0.0
1001
ACAD
1000
AcDbSavedByObjectVersion
1070
     0
  0
VISUALSTYLE
  5
4D1
102
{ACAD_XDICTIONARY
360
560
102
}
102
{ACAD_REACTORS
330
4BC
102
}
330
4BC
100
AcDbVisualStyle
  2
Shaded
 70
    27
 71
     2
 72
     2
 73
     1
 90
        2
 40
-0.6
 41
30.0
 62
     5
 63
     7
 74
     0
 91
        4
 64
     7
 65
   257
 75
     1
175
     1
 42
1.0
 92
        8
 66
   257
 43
1.0
 76
     1
 77
     6
 78
     2
 67
     8
 79
     3
170
     0
171
     0
290
     0
174
     0
 93
        5
 44
0.0
173
     0
291
     0
 45
0.0
1001
ACAD
1000
AcDbSavedByObjectVersion
1070
     0
  0
VISUALSTYLE
  5
4D0
102
{ACAD_XDICTIONARY
360
55E
102
}
102
{ACAD_REACTORS
330
4BC
102
}
330
4BC
100
AcDbVisualStyle
  2
Shaded with edges
 70
    26
 71
     2
 72
     2
 73
     1
 90
        2
 40
-0.6
 41
30.0
 62
     5
 63
     7
 74
     1
 91
        2
 64
     7
 65
   257
 75
     2
175
     1
 42
1.0
 92
        8
 66
   257
 43
1.0
 76
     1
 77
     6
 78
     2
 67
     7
 79
     3
170
     0
171
     0
290
     0
174
     0
 93
        5
 44
0.0
173
     0
291
     0
 45
0.0
1001
ACAD
1000
AcDbSavedByObjectVersion
1070
     0
  0
VISUALSTYLE
  5
4CD
102
{ACAD_XDICTIONARY
360
558
102
}
102
{ACAD_REACTORS
330
4BC
102
}
330
4BC
100
AcDbVisualStyle
  2
Shades of Gray
 70
    23
 71
     2
 72
     2
 73
     3
 90
        0
 40
-0.6
 41
-30.0
 62
     5
 63
     7
 74
     2
 91
        2
 64
     7
 65
     7
 75
     1
175
     1
 42
40.0
 92
        8
 66
     7
 43
1.0
 76
     1
 77
     6
 78
     2
 67
     7
 79
     3
170
     0
171
     0
290
     0
174
     0
 93
        1
 44
0.0
173
     0
291
     0
 45
0.0
1001
ACAD
1000
AcDbSavedByObjectVersion
1070
     0
  0
VISUALSTYLE
  5
4CE
102
{ACAD_XDICTIONARY
360
55A
102
}
102
{ACAD_REACTORS
330
4BC
102
}
330
4BC
100
AcDbVisualStyle
  2
Sketchy
 70
    24
 71
     1
 72
     2
 73
     2
 90
        0
 40
-0.6
 41
-30.0
 62
     5
 63
     7
 74
     2
 91
        2
 64
     7
 65
     7
 75
     1
175
     1
 42
40.0
 92
       11
 66
     7
 43
1.0
 76
     1
 77
     6
 78
     2
 67
     7
 79
     6
170
     0
171
     0
290
     0
174
     0
 93
        1
 44
0.0
173
     0
291
     0
 45
0.0
1001
ACAD
1000
AcDbSavedByObjectVersion
1070
     0
  0
VISUALSTYLE
  5
4C9
102
{ACAD_XDICTIONARY
360
550
102
}
102
{ACAD_REACTORS
330
4BC
102
}
330
4BC
100
AcDbVisualStyle
  2
Thicken
 70
    13
 71
     2
 72
     2
 73
     0
 90
        0
 40
-0.6
 41
-30.0
 62
     5
 63
     7
 74
     1
 91
        4
 64
     7
 65
   257
 75
     1
175
     1
 42
1.0
 92
       12
 66
     7
 43
1.0
 76
     1
 77
     6
 78
     2
 67
     7
 79
     5
170
     0
171
     0
290
     0
174
     0
 93
        1
 44
0.0
173
     0
291
     1
 45
0.0
1001
ACAD
1000
AcDbSavedByObjectVersion
1070
     0
  0
VISUALSTYLE
  5
4C3
102
{ACAD_XDICTIONARY
360
544
102
}
102
{ACAD_REACTORS
330
4BC
102
}
330
4BC
100
AcDbVisualStyle
  2
Wireframe
 70
     5
 71
     0
 72
     2
 73
     0
 90
        0
 40
-0.6
 41
-30.0
 62
     5
 63
     7
 74
     1
 91
        4
 64
     7
 65
   257
 75
     1
175
     1
 42
1.0
 92
        0
 66
   257
 43
1.0
 76
     1
 77
     6
 78
     2
 67
     7
 79
     3
170
     0
171
     0
290
     0
174
     0
 93
        1
 44
0.0
173
     0
291
     0
 45
0.0
1001
ACAD
1000
AcDbSavedByObjectVersion
1070
     0
  0
VISUALSTYLE
  5
4CF
102
{ACAD_XDICTIONARY
360
55C
102
}
102
{ACAD_REACTORS
330
4BC
102
}
330
4BC
100
AcDbVisualStyle
  2
X-Ray
 70
    25
 71
     2
 72
     2
 73
     1
 90
        1
 40
0.5
 41
-30.0
 62
     5
 63
     7
 74
     1
 91
        0
 64
     7
 65
   257
 75
     1
175
     1
 42
1.0
 92
        8
 66
     7
 43
1.0
 76
     1
 77
     6
 78
     2
 67
     7
 79
     3
170
     0
171
     0
290
     0
174
     0
 93
       13
 44
0.0
173
     0
291
     0
 45
0.0
1001
ACAD
1000
AcDbSavedByObjectVersion
1070
     0
  0
DICTIONARYVAR
  5
52B
102
{ACAD_REACTORS
330
526
102
}
330
526
100
DictionaryVariables
280
     0
  1
1:1
  0
DICTIONARYVAR
  5
528
102
{ACAD_REACTORS
330
526
102
}
330
526
100
DictionaryVariables
280
     0
  1
STANDARD
  0
DICTIONARYVAR
  5
527
102
{ACAD_REACTORS
330
526
102
}
330
526
100
DictionaryVariables
280
     0
  1
STANDARD
  0
DICTIONARYVAR
  5
529
102
{ACAD_REACTORS
330
526
102
}
330
526
100
DictionaryVariables
280
     0
  1
Imperial24
  0
DICTIONARYVAR
  5
52A
102
{ACAD_REACTORS
330
526
102
}
330
526
100
DictionaryVariables
280
     0
  1
Imperial24
  0
DICTIONARYVAR
  5
52E
102
{ACAD_REACTORS
330
526
102
}
330
526
100
DictionaryVariables
280
     0
  1
1
  0
DICTIONARYVAR
  5
52D
102
{ACAD_REACTORS
330
526
102
}
330
526
100
DictionaryVariables
280
     0
  1
0
  0
DICTIONARYVAR
  5
52C
102
{ACAD_REACTORS
330
526
102
}
330
526
100
DictionaryVariables
280
     0
  1
127
  0
DICTIONARYVAR
  5
52F
102
{ACAD_REACTORS
330
526
102
}
330
526
100
DictionaryVariables
280
     0
  1
2
  0
DICTIONARY
  5
56C
330
4FD
100
AcDbDictionary
280
     1
281
     1
  3
ACAD_XREC_ROUNDTRIP
360
56D
  0
DICTIONARY
  5
570
330
505
100
AcDbDictionary
280
     1
281
     1
  3
ACAD_XREC_ROUNDTRIP
360
571
  0
DICTIONARY
  5
56E
330
501
100
AcDbDictionary
280
     1
281
     1
  3
ACAD_XREC_ROUNDTRIP
360
56F
  0
DICTIONARY
  5
4AD
330
4AC
100
AcDbDictionary
280
     1
281
     1
  3
ACAD_XREC_ROUNDTRIP
360
536
  3
BUMPTILE
360
4AF
  3
DIFFUSETILE
360
4AE
  3
OPACITYTILE
360
4B2
  3
REFLECTIONTILE
360
4B1
  3
REFRACTIONTILE
360
4B3
  3
SPECULARTILE
360
4B0
  0
DICTIONARY
  5
4A5
330
4A4
100
AcDbDictionary
280
     1
281
     1
  3
ACAD_XREC_ROUNDTRIP
360
535
  3
BUMPTILE
360
4A7
  3
DIFFUSETILE
360
4A6
  3
OPACITYTILE
360
4AA
  3
REFLECTIONTILE
360
4A9
  3
REFRACTIONTILE
360
4AB
  3
SPECULARTILE
360
4A8
  0
DICTIONARY
  5
4B5
330
4B4
100
AcDbDictionary
280
     1
281
     1
  3
ACAD_XREC_ROUNDTRIP
360
537
  3
BUMPTILE
360
4B7
  3
DIFFUSETILE
360
4B6
  3
OPACITYTILE
360
4BA
  3
REFLECTIONTILE
360
4B9
  3
REFRACTIONTILE
360
4BB
  3
SPECULARTILE
360
4B8
  0
DICTIONARY
  5
56A
330
4FB
100
AcDbDictionary
280
     1
281
     1
  3
ACAD_XREC_ROUNDTRIP
360
56B
  0
DICTIONARY
  5
531
330
4F7
100
AcDbDictionary
280
     1
281
     1
  3
ACAD_ROUNDTRIP_2008_TABLESTYLE_CELLSTYLEMAP
360
532
  3
ACAD_XREC_ROUNDTRIP
360
568
  0
DICTIONARY
  5
542
330
4C2
100
AcDbDictionary
280
     1
281
     1
  3
ACAD_XREC_ROUNDTRIP
360
543
  0
DICTIONARY
  5
540
330
4C1
100
AcDbDictionary
280
     1
281
     1
  3
ACAD_XREC_ROUNDTRIP
360
541
  0
DICTIONARY
  5
54E
330
4C8
100
AcDbDictionary
280
     1
281
     1
  3
ACAD_XREC_ROUNDTRIP
360
54F
  0
DICTIONARY
  5
556
330
4CC
100
AcDbDictionary
280
     1
281
     1
  3
ACAD_XREC_ROUNDTRIP
360
557
  0
DICTIONARY
  5
548
330
4C5
100
AcDbDictionary
280
     1
281
     1
  3
ACAD_XREC_ROUNDTRIP
360
549
  0
DICTIONARY
  5
54C
330
4C7
100
AcDbDictionary
280
     1
281
     1
  3
ACAD_XREC_ROUNDTRIP
360
54D
  0
DICTIONARY
  5
566
330
4D4
100
AcDbDictionary
280
     1
281
     1
  3
ACAD_XREC_ROUNDTRIP
360
567
  0
DICTIONARY
  5
554
330
4CB
100
AcDbDictionary
280
     1
281
     1
  3
ACAD_XREC_ROUNDTRIP
360
555
  0
DICTIONARY
  5
538
330
4BD
100
AcDbDictionary
280
     1
281
     1
  3
ACAD_XREC_ROUNDTRIP
360
539
  0
DICTIONARY
  5
53A
330
4BE
100
AcDbDictionary
280
     1
281
     1
  3
ACAD_XREC_ROUNDTRIP
360
53B
  0
DICTIONARY
  5
53C
330
4BF
100
AcDbDictionary
280
     1
281
     1
  3
ACAD_XREC_ROUNDTRIP
360
53D
  0
DICTIONARY
  5
53E
330
4C0
100
AcDbDictionary
280
     1
281
     1
  3
ACAD_XREC_ROUNDTRIP
360
53F
  0
DICTIONARY
  5
546
330
4C4
100
AcDbDictionary
280
     1
281
     1
  3
ACAD_XREC_ROUNDTRIP
360
547
  0
DICTIONARY
  5
562
330
4D2
100
AcDbDictionary
280
     1
281
     1
  3
ACAD_XREC_ROUNDTRIP
360
563
  0
DICTIONARY
  5
552
330
4CA
100
AcDbDictionary
280
     1
281
     1
  3
ACAD_XREC_ROUNDTRIP
360
553
  0
DICTIONARY
  5
564
330
4D3
100
AcDbDictionary
280
     1
281
     1
  3
ACAD_XREC_ROUNDTRIP
360
565
  0
DICTIONARY
  5
54A
330
4C6
100
AcDbDictionary
280
     1
281
     1
  3
ACAD_XREC_ROUNDTRIP
360
54B
  0
DICTIONARY
  5
560
330
4D1
100
AcDbDictionary
280
     1
281
     1
  3
ACAD_XREC_ROUNDTRIP
360
561
  0
DICTIONARY
  5
55E
330
4D0
100
AcDbDictionary
280
     1
281
     1
  3
ACAD_XREC_ROUNDTRIP
360
55F
  0
DICTIONARY
  5
558
330
4CD
100
AcDbDictionary
280
     1
281
     1
  3
ACAD_XREC_ROUNDTRIP
360
559
  0
DICTIONARY
  5
55A
330
4CE
100
AcDbDictionary
280
     1
281
     1
  3
ACAD_XREC_ROUNDTRIP
360
55B
  0
DICTIONARY
  5
550
330
4C9
100
AcDbDictionary
280
     1
281
     1
  3
ACAD_XREC_ROUNDTRIP
360
551
  0
DICTIONARY
  5
544
330
4C3
100
AcDbDictionary
280
     1
281
     1
  3
ACAD_XREC_ROUNDTRIP
360
545
  0
DICTIONARY
  5
55C
330
4CF
100
AcDbDictionary
280
     1
281
     1
  3
ACAD_XREC_ROUNDTRIP
360
55D
  0
XRECORD
  5
56D
102
{ACAD_REACTORS
330
56C
102
}
330
56C
100
AcDbXrecord
280
     1
102
DISPLAYNAME
  1
Imperial24
102
FLAGS
 90
        0
  0
XRECORD
  5
571
102
{ACAD_REACTORS
330
570
102
}
330
570
100
AcDbXrecord
280
     1
102
SHADEPLOT
 70
     0
102
SHADEPLOTRESLEVEL
 70
     2
102
SHADEPLOTCUSTOMDPI
 70
   300
  0
XRECORD
  5
56F
102
{ACAD_REACTORS
330
56E
102
}
330
56E
100
AcDbXrecord
280
     1
102
SHADEPLOT
 70
     0
102
SHADEPLOTRESLEVEL
 70
     2
102
SHADEPLOTCUSTOMDPI
 70
   300
  0
XRECORD
  5
536
102
{ACAD_REACTORS
330
4AD
102
}
330
4AD
100
AcDbXrecord
280
     1
102
MATERIAL
148
0.0
149
0.0
149
0.0
 93
        0
 94
      127
282
     0
 72
     0
 77
     0
171
     0
175
     0
179
     0
273
     0
  0
XRECORD
  5
4AF
102
{ACAD_REACTORS
330
4AD
102
}
330
4AD
100
AcDbXrecord
280
     1
270
     1
271
     1
  0
XRECORD
  5
4AE
102
{ACAD_REACTORS
330
4AD
102
}
330
4AD
100
AcDbXrecord
280
     1
270
     1
271
     1
  0
XRECORD
  5
4B2
102
{ACAD_REACTORS
330
4AD
102
}
330
4AD
100
AcDbXrecord
280
     1
270
     1
271
     1
  0
XRECORD
  5
4B1
102
{ACAD_REACTORS
330
4AD
102
}
330
4AD
100
AcDbXrecord
280
     1
270
     1
271
     1
  0
XRECORD
  5
4B3
102
{ACAD_REACTORS
330
4AD
102
}
330
4AD
100
AcDbXrecord
280
     1
270
     1
271
     1
  0
XRECORD
  5
4B0
102
{ACAD_REACTORS
330
4AD
102
}
330
4AD
100
AcDbXrecord
280
     1
270
     1
271
     1
  0
XRECORD
  5
535
102
{ACAD_REACTORS
330
4A5
102
}
330
4A5
100
AcDbXrecord
280
     1
102
MATERIAL
148
0.0
149
0.0
149
0.0
 93
        0
 94
      127
282
     0
 72
     0
 77
     0
171
     0
175
     0
179
     0
273
     0
  0
XRECORD
  5
4A7
102
{ACAD_REACTORS
330
4A5
102
}
330
4A5
100
AcDbXrecord
280
     1
270
     1
271
     1
  0
XRECORD
  5
4A6
102
{ACAD_REACTORS
330
4A5
102
}
330
4A5
100
AcDbXrecord
280
     1
270
     1
271
     1
  0
XRECORD
  5
4AA
102
{ACAD_REACTORS
330
4A5
102
}
330
4A5
100
AcDbXrecord
280
     1
270
     1
271
     1
  0
XRECORD
  5
4A9
102
{ACAD_REACTORS
330
4A5
102
}
330
4A5
100
AcDbXrecord
280
     1
270
     1
271
     1
  0
XRECORD
  5
4AB
102
{ACAD_REACTORS
330
4A5
102
}
330
4A5
100
AcDbXrecord
280
     1
270
     1
271
     1
  0
XRECORD
  5
4A8
102
{ACAD_REACTORS
330
4A5
102
}
330
4A5
100
AcDbXrecord
280
     1
270
     1
271
     1
  0
XRECORD
  5
537
102
{ACAD_REACTORS
330
4B5
102
}
330
4B5
100
AcDbXrecord
280
     1
102
MATERIAL
148
0.0
149
0.0
149
0.0
 93
        0
 94
      127
282
     0
 72
     0
 77
     0
171
     0
175
     0
179
     0
273
     0
  0
XRECORD
  5
4B7
102
{ACAD_REACTORS
330
4B5
102
}
330
4B5
100
AcDbXrecord
280
     1
270
     1
271
     1
  0
XRECORD
  5
4B6
102
{ACAD_REACTORS
330
4B5
102
}
330
4B5
100
AcDbXrecord
280
     1
270
     1
271
     1
  0
XRECORD
  5
4BA
102
{ACAD_REACTORS
330
4B5
102
}
330
4B5
100
AcDbXrecord
280
     1
270
     1
271
     1
  0
XRECORD
  5
4B9
102
{ACAD_REACTORS
330
4B5
102
}
330
4B5
100
AcDbXrecord
280
     1
270
     1
271
     1
  0
XRECORD
  5
4BB
102
{ACAD_REACTORS
330
4B5
102
}
330
4B5
100
AcDbXrecord
280
     1
270
     1
271
     1
  0
XRECORD
  5
4B8
102
{ACAD_REACTORS
330
4B5
102
}
330
4B5
100
AcDbXrecord
280
     1
270
     1
271
     1
  0
XRECORD
  5
56B
102
{ACAD_REACTORS
330
56A
102
}
330
56A
100
AcDbXrecord
280
     1
102
DISPLAYNAME
  1
Imperial24
102
FLAGS
 90
        0
  0
CELLSTYLEMAP
  5
532
102
{ACAD_REACTORS
330
531
102
}
330
531
100
AcDbCellStyleMap
 90
        3
300
CELLSTYLE
  1
TABLEFORMAT_BEGIN
 90
        5
170
     1
 91
        0
 92
    32768
 62
   257
 93
        1
300
CONTENTFORMAT
  1
CONTENTFORMAT_BEGIN
 90
        0
 91
        0
 92
      512
 93
        0
300

 40
0.0
140
1.0
 94
        5
 62
     0
340
4E8
144
0.25
309
CONTENTFORMAT_END
171
     0
 94
        0
309
TABLEFORMAT_END
  1
CELLSTYLE_BEGIN
 90
        1
 91
        1
300
_TITLE
309
CELLSTYLE_END
300
CELLSTYLE
  1
TABLEFORMAT_BEGIN
 90
        5
170
     1
 91
        0
 92
        0
 62
   257
 93
        1
300
CONTENTFORMAT
  1
CONTENTFORMAT_BEGIN
 90
        0
 91
        0
 92
      512
 93
        0
300

 40
0.0
140
1.0
 94
        5
 62
     0
340
4E8
144
0.18
309
CONTENTFORMAT_END
171
     0
 94
        0
309
TABLEFORMAT_END
  1
CELLSTYLE_BEGIN
 90
        2
 91
        1
300
_HEADER
309
CELLSTYLE_END
300
CELLSTYLE
  1
TABLEFORMAT_BEGIN
 90
        5
170
     1
 91
        0
 92
        0
 62
   257
 93
        1
300
CONTENTFORMAT
  1
CONTENTFORMAT_BEGIN
 90
        0
 91
        0
 92
      512
 93
        0
300

 40
0.0
140
1.0
 94
        2
 62
     0
340
4E8
144
0.18
309
CONTENTFORMAT_END
171
     0
 94
        0
309
TABLEFORMAT_END
  1
CELLSTYLE_BEGIN
 90
        3
 91
        2
300
_DATA
309
CELLSTYLE_END
  0
XRECORD
  5
568
102
{ACAD_REACTORS
330
531
102
}
330
531
100
AcDbXrecord
280
     1
102
ACAD_ROUNDTRIP_PRE2007_TABLESTYLE
 90
      512
 91
        0
  1

 92
      512
 93
        0
  2

 94
      512
 95
        0
  3

  0
XRECORD
  5
543
102
{ACAD_REACTORS
330
542
102
}
330
542
100
AcDbXrecord
280
     1
102
RTVSPost2010Prop28
280
     1
102
RTVSPost2010PropOp28
 70
     1
102
RTVSPost2010Prop29
280
     1
102
RTVSPost2010PropOp29
 70
     1
102
RTVSPost2010Prop30
280
     0
102
RTVSPost2010PropOp30
 70
     1
102
RTVSPost2010Prop31
280
     0
102
RTVSPost2010PropOp31
 70
     1
102
RTVSPost2010Prop32
280
     0
102
RTVSPost2010PropOp32
 70
     1
102
RTVSPost2010Prop33
280
     0
102
RTVSPost2010PropOp33
 70
     1
102
RTVSPost2010Prop34
280
     0
102
RTVSPost2010PropOp34
 70
     1
102
RTVSPost2010Prop35
280
     0
102
RTVSPost2010PropOp35
 70
     1
102
RTVSPost2010Prop36
280
     0
102
RTVSPost2010PropOp36
 70
     1
102
RTVSPost2010Prop37
 90
       50
102
RTVSPost2010PropOp37
 70
     1
102
RTVSPost2010Prop38
140
0.0
102
RTVSPost2010PropOp38
 70
     1
102
RTVSPost2010Prop39
140
1.0
102
RTVSPost2010PropOp39
 70
     1
102
RTVSPost2010Prop40
 90
        0
102
RTVSPost2010PropOp40
 70
     1
102
RTVSPost2010Prop41ColorIndex
 90
       18
102
RTVSPost2010Prop41ColorRGB
 90
        0
102
RTVSPost2010PropOp41
 70
     1
102
RTVSPost2010Prop42
 90
       50
102
RTVSPost2010PropOp42
 70
     1
102
RTVSPost2010Prop43
 90
        3
102
RTVSPost2010PropOp43
 70
     1
102
RTVSPost2010Prop44ColorIndex
 90
        5
102
RTVSPost2010Prop44ColorRGB
 90
      255
102
RTVSPost2010PropOp44
 70
     1
102
RTVSPost2010Prop45
280
     0
102
RTVSPost2010PropOp45
 70
     1
102
RTVSPost2010Prop46
 90
       50
102
RTVSPost2010PropOp46
 70
     1
102
RTVSPost2010Prop47
 90
       50
102
RTVSPost2010PropOp47
 70
     1
102
RTVSPost2010Prop48
 90
       50
102
RTVSPost2010PropOp48
 70
     1
102
RTVSPost2010Prop49
280
     0
102
RTVSPost2010PropOp49
 70
     1
102
RTVSPost2010Prop50
 90
       50
102
RTVSPost2010PropOp50
 70
     1
102
RTVSPost2010Prop51ColorIndex
 90
      256
102
RTVSPost2010Prop51ColorRGB
 90
-16777216
102
RTVSPost2010PropOp51
 70
     0
102
RTVSPost2010Prop52
140
1.0
102
RTVSPost2010PropOp52
 70
     0
102
RTVSPost2010Prop53
 90
        2
102
RTVSPost2010PropOp53
 70
     1
102
RTVSPost2010Prop54
  1
strokes_ogs.tif
102
RTVSPost2010PropOp54
 70
     1
102
RTVSPost2010Prop55
280
     0
102
RTVSPost2010PropOp55
 70
     1
102
RTVSPost2010Prop56
140
1.0
102
RTVSPost2010PropOp56
 70
     1
102
RTVSPost2010Prop57
140
1.0
102
RTVSPost2010PropOp57
 70
     1
102
RTVSPropertyOp0
 70
     1
102
RTVSPropertyOp1
 70
     1
102
RTVSPropertyOp2
 70
     1
102
RTVSPropertyOp3
 70
     1
102
RTVSPropertyOp4
 70
     1
102
RTVSPropertyOp5
 70
     1
102
RTVSPropertyOp6
 70
     1
102
RTVSPropertyOp7
 70
     1
102
RTVSPropertyOp8
 70
     1
102
RTVSPropertyOp9
 70
     1
102
RTVSPropertyOp10
 70
     1
102
RTVSPropertyOp11
 70
     1
102
RTVSPropertyOp12
 70
     1
102
RTVSPropertyOp13
 70
     1
102
RTVSPropertyOp14
 70
     1
102
RTVSPropertyOp15
 70
     1
102
RTVSPropertyOp16
 70
     1
102
RTVSPropertyOp17
 70
     1
102
RTVSPropertyOp18
 70
     1
102
RTVSPropertyOp19
 70
     1
102
RTVSPropertyOp20
 70
     1
102
RTVSPropertyOp21
 70
     1
102
RTVSPropertyOp22
 70
     1
102
RTVSPropertyOp23
 70
     1
102
RTVSPropertyOp24
 70
     1
102
RTVSPropertyOp25
 70
     1
102
RTVSPropertyOp26
 70
     1
102
RTVSPropertyOp27
 70
     1
102
RTVSPropertyOp28
 70
     1
102
RTVSPropertyOp29
 70
     1
102
RTVSPropertyOp30
 70
     1
102
RTVSPropertyOp31
 70
     1
102
RTVSPropertyOp32
 70
     1
102
RTVSPropertyOp33
 70
     1
102
RTVSPropertyOp34
 70
     1
102
RTVSPropertyOp35
 70
     1
102
RTVSPropertyOp36
 70
     1
102
RTVSPropertyOp37
 70
     1
102
RTVSPropertyOp38
 70
     1
102
RTVSPropertyOp39
 70
     1
102
RTVSPropertyOp40
 70
     1
102
RTVSPropertyOp41
 70
     1
102
RTVSPropertyOp42
 70
     1
102
RTVSPropertyOp43
 70
     1
102
RTVSPropertyOp44
 70
     1
102
RTVSPropertyOp45
 70
     1
102
RTVSPropertyOp46
 70
     1
102
RTVSPropertyOp47
 70
     1
102
RTVSPropertyOp48
 70
     1
102
RTVSPropertyOp49
 70
     1
102
RTVSPropertyOp50
 70
     1
102
RTVSPropertyOp51
 70
     0
102
RTVSPropertyOp52
 70
     0
102
RTVSPropertyOp53
 70
     1
102
RTVSPropertyOp54
 70
     1
102
RTVSPropertyOp55
 70
     1
102
RTVSPropertyOp56
 70
     1
102
RTVSPropertyOp57
 70
     1
102
RTVSPropertyOp58
 70
     1
102
RTVSPropertyOp59
 70
     1
102
RTVSPropertyOp60
 70
     1
102
RTVSPropertyOp61
 70
     1
102
RTVSPropertyOp62
 70
     1
  0
XRECORD
  5
541
102
{ACAD_REACTORS
330
540
102
}
330
540
100
AcDbXrecord
280
     1
102
RTVSPost2010Prop28
280
     0
102
RTVSPost2010PropOp28
 70
     1
102
RTVSPost2010Prop29
280
     1
102
RTVSPost2010PropOp29
 70
     1
102
RTVSPost2010Prop30
280
     1
102
RTVSPost2010PropOp30
 70
     1
102
RTVSPost2010Prop31
280
     0
102
RTVSPost2010PropOp31
 70
     1
102
RTVSPost2010Prop32
280
     0
102
RTVSPost2010PropOp32
 70
     1
102
RTVSPost2010Prop33
280
     0
102
RTVSPost2010PropOp33
 70
     1
102
RTVSPost2010Prop34
280
     0
102
RTVSPost2010PropOp34
 70
     1
102
RTVSPost2010Prop35
280
     0
102
RTVSPost2010PropOp35
 70
     1
102
RTVSPost2010Prop36
280
     0
102
RTVSPost2010PropOp36
 70
     1
102
RTVSPost2010Prop37
 90
       50
102
RTVSPost2010PropOp37
 70
     1
102
RTVSPost2010Prop38
140
0.0
102
RTVSPost2010PropOp38
 70
     1
102
RTVSPost2010Prop39
140
1.0
102
RTVSPost2010PropOp39
 70
     1
102
RTVSPost2010Prop40
 90
        0
102
RTVSPost2010PropOp40
 70
     1
102
RTVSPost2010Prop41ColorIndex
 90
       18
102
RTVSPost2010Prop41ColorRGB
 90
        0
102
RTVSPost2010PropOp41
 70
     1
102
RTVSPost2010Prop42
 90
       50
102
RTVSPost2010PropOp42
 70
     1
102
RTVSPost2010Prop43
 90
        3
102
RTVSPost2010PropOp43
 70
     1
102
RTVSPost2010Prop44ColorIndex
 90
        5
102
RTVSPost2010Prop44ColorRGB
 90
      255
102
RTVSPost2010PropOp44
 70
     1
102
RTVSPost2010Prop45
280
     0
102
RTVSPost2010PropOp45
 70
     1
102
RTVSPost2010Prop46
 90
       50
102
RTVSPost2010PropOp46
 70
     1
102
RTVSPost2010Prop47
 90
       50
102
RTVSPost2010PropOp47
 70
     1
102
RTVSPost2010Prop48
 90
       50
102
RTVSPost2010PropOp48
 70
     1
102
RTVSPost2010Prop49
280
     0
102
RTVSPost2010PropOp49
 70
     1
102
RTVSPost2010Prop50
 90
       50
102
RTVSPost2010PropOp50
 70
     1
102
RTVSPost2010Prop51ColorIndex
 90
      256
102
RTVSPost2010Prop51ColorRGB
 90
-16777216
102
RTVSPost2010PropOp51
 70
     0
102
RTVSPost2010Prop52
140
1.0
102
RTVSPost2010PropOp52
 70
     0
102
RTVSPost2010Prop53
 90
        2
102
RTVSPost2010PropOp53
 70
     1
102
RTVSPost2010Prop54
  1
strokes_ogs.tif
102
RTVSPost2010PropOp54
 70
     1
102
RTVSPost2010Prop55
280
     0
102
RTVSPost2010PropOp55
 70
     1
102
RTVSPost2010Prop56
140
1.0
102
RTVSPost2010PropOp56
 70
     1
102
RTVSPost2010Prop57
140
1.0
102
RTVSPost2010PropOp57
 70
     1
102
RTVSPropertyOp0
 70
     1
102
RTVSPropertyOp1
 70
     1
102
RTVSPropertyOp2
 70
     1
102
RTVSPropertyOp3
 70
     1
102
RTVSPropertyOp4
 70
     1
102
RTVSPropertyOp5
 70
     1
102
RTVSPropertyOp6
 70
     1
102
RTVSPropertyOp7
 70
     1
102
RTVSPropertyOp8
 70
     1
102
RTVSPropertyOp9
 70
     1
102
RTVSPropertyOp10
 70
     1
102
RTVSPropertyOp11
 70
     1
102
RTVSPropertyOp12
 70
     1
102
RTVSPropertyOp13
 70
     1
102
RTVSPropertyOp14
 70
     1
102
RTVSPropertyOp15
 70
     1
102
RTVSPropertyOp16
 70
     1
102
RTVSPropertyOp17
 70
     1
102
RTVSPropertyOp18
 70
     1
102
RTVSPropertyOp19
 70
     1
102
RTVSPropertyOp20
 70
     1
102
RTVSPropertyOp21
 70
     1
102
RTVSPropertyOp22
 70
     1
102
RTVSPropertyOp23
 70
     1
102
RTVSPropertyOp24
 70
     1
102
RTVSPropertyOp25
 70
     1
102
RTVSPropertyOp26
 70
     1
102
RTVSPropertyOp27
 70
     1
102
RTVSPropertyOp28
 70
     1
102
RTVSPropertyOp29
 70
     1
102
RTVSPropertyOp30
 70
     1
102
RTVSPropertyOp31
 70
     1
102
RTVSPropertyOp32
 70
     1
102
RTVSPropertyOp33
 70
     1
102
RTVSPropertyOp34
 70
     1
102
RTVSPropertyOp35
 70
     1
102
RTVSPropertyOp36
 70
     1
102
RTVSPropertyOp37
 70
     1
102
RTVSPropertyOp38
 70
     1
102
RTVSPropertyOp39
 70
     1
102
RTVSPropertyOp40
 70
     1
102
RTVSPropertyOp41
 70
     1
102
RTVSPropertyOp42
 70
     1
102
RTVSPropertyOp43
 70
     1
102
RTVSPropertyOp44
 70
     1
102
RTVSPropertyOp45
 70
     1
102
RTVSPropertyOp46
 70
     1
102
RTVSPropertyOp47
 70
     1
102
RTVSPropertyOp48
 70
     1
102
RTVSPropertyOp49
 70
     1
102
RTVSPropertyOp50
 70
     1
102
RTVSPropertyOp51
 70
     0
102
RTVSPropertyOp52
 70
     0
102
RTVSPropertyOp53
 70
     1
102
RTVSPropertyOp54
 70
     1
102
RTVSPropertyOp55
 70
     1
102
RTVSPropertyOp56
 70
     1
102
RTVSPropertyOp57
 70
     1
102
RTVSPropertyOp58
 70
     1
102
RTVSPropertyOp59
 70
     1
102
RTVSPropertyOp60
 70
     1
102
RTVSPropertyOp61
 70
     1
102
RTVSPropertyOp62
 70
     1
  0
XRECORD
  5
54F
102
{ACAD_REACTORS
330
54E
102
}
330
54E
100
AcDbXrecord
280
     1
102
RTVSPost2010Prop28
280
     0
102
RTVSPost2010PropOp28
 70
     1
102
RTVSPost2010Prop29
280
     1
102
RTVSPost2010PropOp29
 70
     1
102
RTVSPost2010Prop30
280
     1
102
RTVSPost2010PropOp30
 70
     1
102
RTVSPost2010Prop31
280
     0
102
RTVSPost2010PropOp31
 70
     1
102
RTVSPost2010Prop32
280
     0
102
RTVSPost2010PropOp32
 70
     1
102
RTVSPost2010Prop33
280
     0
102
RTVSPost2010PropOp33
 70
     1
102
RTVSPost2010Prop34
280
     0
102
RTVSPost2010PropOp34
 70
     1
102
RTVSPost2010Prop35
280
     0
102
RTVSPost2010PropOp35
 70
     1
102
RTVSPost2010Prop36
280
     0
102
RTVSPost2010PropOp36
 70
     1
102
RTVSPost2010Prop37
 90
       50
102
RTVSPost2010PropOp37
 70
     1
102
RTVSPost2010Prop38
140
0.0
102
RTVSPost2010PropOp38
 70
     1
102
RTVSPost2010Prop39
140
1.0
102
RTVSPost2010PropOp39
 70
     1
102
RTVSPost2010Prop40
 90
        0
102
RTVSPost2010PropOp40
 70
     1
102
RTVSPost2010Prop41ColorIndex
 90
       18
102
RTVSPost2010Prop41ColorRGB
 90
        0
102
RTVSPost2010PropOp41
 70
     1
102
RTVSPost2010Prop42
 90
       50
102
RTVSPost2010PropOp42
 70
     1
102
RTVSPost2010Prop43
 90
        3
102
RTVSPost2010PropOp43
 70
     1
102
RTVSPost2010Prop44ColorIndex
 90
        5
102
RTVSPost2010Prop44ColorRGB
 90
      255
102
RTVSPost2010PropOp44
 70
     1
102
RTVSPost2010Prop45
280
     0
102
RTVSPost2010PropOp45
 70
     1
102
RTVSPost2010Prop46
 90
       50
102
RTVSPost2010PropOp46
 70
     1
102
RTVSPost2010Prop47
 90
       50
102
RTVSPost2010PropOp47
 70
     1
102
RTVSPost2010Prop48
 90
       50
102
RTVSPost2010PropOp48
 70
     1
102
RTVSPost2010Prop49
280
     0
102
RTVSPost2010PropOp49
 70
     1
102
RTVSPost2010Prop50
 90
       50
102
RTVSPost2010PropOp50
 70
     1
102
RTVSPost2010Prop51ColorIndex
 90
      256
102
RTVSPost2010Prop51ColorRGB
 90
-16777216
102
RTVSPost2010PropOp51
 70
     0
102
RTVSPost2010Prop52
140
1.0
102
RTVSPost2010PropOp52
 70
     0
102
RTVSPost2010Prop53
 90
        2
102
RTVSPost2010PropOp53
 70
     1
102
RTVSPost2010Prop54
  1
strokes_ogs.tif
102
RTVSPost2010PropOp54
 70
     1
102
RTVSPost2010Prop55
280
     0
102
RTVSPost2010PropOp55
 70
     1
102
RTVSPost2010Prop56
140
1.0
102
RTVSPost2010PropOp56
 70
     1
102
RTVSPost2010Prop57
140
1.0
102
RTVSPost2010PropOp57
 70
     1
102
RTVSPropertyOp0
 70
     1
102
RTVSPropertyOp1
 70
     1
102
RTVSPropertyOp2
 70
     1
102
RTVSPropertyOp3
 70
     1
102
RTVSPropertyOp4
 70
     1
102
RTVSPropertyOp5
 70
     1
102
RTVSPropertyOp6
 70
     1
102
RTVSPropertyOp7
 70
     1
102
RTVSPropertyOp8
 70
     1
102
RTVSPropertyOp9
 70
     1
102
RTVSPropertyOp10
 70
     1
102
RTVSPropertyOp11
 70
     1
102
RTVSPropertyOp12
 70
     1
102
RTVSPropertyOp13
 70
     1
102
RTVSPropertyOp14
 70
     1
102
RTVSPropertyOp15
 70
     1
102
RTVSPropertyOp16
 70
     1
102
RTVSPropertyOp17
 70
     1
102
RTVSPropertyOp18
 70
     1
102
RTVSPropertyOp19
 70
     1
102
RTVSPropertyOp20
 70
     1
102
RTVSPropertyOp21
 70
     1
102
RTVSPropertyOp22
 70
     1
102
RTVSPropertyOp23
 70
     1
102
RTVSPropertyOp24
 70
     1
102
RTVSPropertyOp25
 70
     1
102
RTVSPropertyOp26
 70
     1
102
RTVSPropertyOp27
 70
     1
102
RTVSPropertyOp28
 70
     1
102
RTVSPropertyOp29
 70
     1
102
RTVSPropertyOp30
 70
     1
102
RTVSPropertyOp31
 70
     1
102
RTVSPropertyOp32
 70
     1
102
RTVSPropertyOp33
 70
     1
102
RTVSPropertyOp34
 70
     1
102
RTVSPropertyOp35
 70
     1
102
RTVSPropertyOp36
 70
     1
102
RTVSPropertyOp37
 70
     1
102
RTVSPropertyOp38
 70
     1
102
RTVSPropertyOp39
 70
     1
102
RTVSPropertyOp40
 70
     1
102
RTVSPropertyOp41
 70
     1
102
RTVSPropertyOp42
 70
     1
102
RTVSPropertyOp43
 70
     1
102
RTVSPropertyOp44
 70
     1
102
RTVSPropertyOp45
 70
     1
102
RTVSPropertyOp46
 70
     1
102
RTVSPropertyOp47
 70
     1
102
RTVSPropertyOp48
 70
     1
102
RTVSPropertyOp49
 70
     1
102
RTVSPropertyOp50
 70
     1
102
RTVSPropertyOp51
 70
     0
102
RTVSPropertyOp52
 70
     0
102
RTVSPropertyOp53
 70
     1
102
RTVSPropertyOp54
 70
     1
102
RTVSPropertyOp55
 70
     1
102
RTVSPropertyOp56
 70
     1
102
RTVSPropertyOp57
 70
     1
102
RTVSPropertyOp58
 70
     1
102
RTVSPropertyOp59
 70
     1
102
RTVSPropertyOp60
 70
     1
102
RTVSPropertyOp61
 70
     1
102
RTVSPropertyOp62
 70
     1
  0
XRECORD
  5
557
102
{ACAD_REACTORS
330
556
102
}
330
556
100
AcDbXrecord
280
     1
102
RTVSPost2010Prop28
280
     0
102
RTVSPost2010PropOp28
 70
     1
102
RTVSPost2010Prop29
280
     1
102
RTVSPost2010PropOp29
 70
     1
102
RTVSPost2010Prop30
280
     1
102
RTVSPost2010PropOp30
 70
     1
102
RTVSPost2010Prop31
280
     0
102
RTVSPost2010PropOp31
 70
     1
102
RTVSPost2010Prop32
280
     0
102
RTVSPost2010PropOp32
 70
     1
102
RTVSPost2010Prop33
280
     0
102
RTVSPost2010PropOp33
 70
     1
102
RTVSPost2010Prop34
280
     0
102
RTVSPost2010PropOp34
 70
     1
102
RTVSPost2010Prop35
280
     0
102
RTVSPost2010PropOp35
 70
     1
102
RTVSPost2010Prop36
280
     0
102
RTVSPost2010PropOp36
 70
     1
102
RTVSPost2010Prop37
 90
       50
102
RTVSPost2010PropOp37
 70
     1
102
RTVSPost2010Prop38
140
0.0
102
RTVSPost2010PropOp38
 70
     1
102
RTVSPost2010Prop39
140
1.0
102
RTVSPost2010PropOp39
 70
     1
102
RTVSPost2010Prop40
 90
        0
102
RTVSPost2010PropOp40
 70
     1
102
RTVSPost2010Prop41ColorIndex
 90
       18
102
RTVSPost2010Prop41ColorRGB
 90
        0
102
RTVSPost2010PropOp41
 70
     1
102
RTVSPost2010Prop42
 90
       50
102
RTVSPost2010PropOp42
 70
     1
102
RTVSPost2010Prop43
 90
        3
102
RTVSPost2010PropOp43
 70
     1
102
RTVSPost2010Prop44ColorIndex
 90
        5
102
RTVSPost2010Prop44ColorRGB
 90
      255
102
RTVSPost2010PropOp44
 70
     1
102
RTVSPost2010Prop45
280
     0
102
RTVSPost2010PropOp45
 70
     1
102
RTVSPost2010Prop46
 90
       50
102
RTVSPost2010PropOp46
 70
     1
102
RTVSPost2010Prop47
 90
       50
102
RTVSPost2010PropOp47
 70
     1
102
RTVSPost2010Prop48
 90
       50
102
RTVSPost2010PropOp48
 70
     1
102
RTVSPost2010Prop49
280
     0
102
RTVSPost2010PropOp49
 70
     1
102
RTVSPost2010Prop50
 90
       50
102
RTVSPost2010PropOp50
 70
     1
102
RTVSPost2010Prop51ColorIndex
 90
      256
102
RTVSPost2010Prop51ColorRGB
 90
-16777216
102
RTVSPost2010PropOp51
 70
     0
102
RTVSPost2010Prop52
140
1.0
102
RTVSPost2010PropOp52
 70
     0
102
RTVSPost2010Prop53
 90
        2
102
RTVSPost2010PropOp53
 70
     1
102
RTVSPost2010Prop54
  1
strokes_ogs.tif
102
RTVSPost2010PropOp54
 70
     1
102
RTVSPost2010Prop55
280
     0
102
RTVSPost2010PropOp55
 70
     1
102
RTVSPost2010Prop56
140
1.0
102
RTVSPost2010PropOp56
 70
     1
102
RTVSPost2010Prop57
140
1.0
102
RTVSPost2010PropOp57
 70
     1
102
RTVSPropertyOp0
 70
     1
102
RTVSPropertyOp1
 70
     1
102
RTVSPropertyOp2
 70
     1
102
RTVSPropertyOp3
 70
     1
102
RTVSPropertyOp4
 70
     1
102
RTVSPropertyOp5
 70
     1
102
RTVSPropertyOp6
 70
     1
102
RTVSPropertyOp7
 70
     1
102
RTVSPropertyOp8
 70
     1
102
RTVSPropertyOp9
 70
     1
102
RTVSPropertyOp10
 70
     1
102
RTVSPropertyOp11
 70
     1
102
RTVSPropertyOp12
 70
     1
102
RTVSPropertyOp13
 70
     1
102
RTVSPropertyOp14
 70
     1
102
RTVSPropertyOp15
 70
     1
102
RTVSPropertyOp16
 70
     1
102
RTVSPropertyOp17
 70
     1
102
RTVSPropertyOp18
 70
     1
102
RTVSPropertyOp19
 70
     1
102
RTVSPropertyOp20
 70
     1
102
RTVSPropertyOp21
 70
     1
102
RTVSPropertyOp22
 70
     1
102
RTVSPropertyOp23
 70
     1
102
RTVSPropertyOp24
 70
     1
102
RTVSPropertyOp25
 70
     1
102
RTVSPropertyOp26
 70
     1
102
RTVSPropertyOp27
 70
     1
102
RTVSPropertyOp28
 70
     1
102
RTVSPropertyOp29
 70
     1
102
RTVSPropertyOp30
 70
     1
102
RTVSPropertyOp31
 70
     1
102
RTVSPropertyOp32
 70
     1
102
RTVSPropertyOp33
 70
     1
102
RTVSPropertyOp34
 70
     1
102
RTVSPropertyOp35
 70
     1
102
RTVSPropertyOp36
 70
     1
102
RTVSPropertyOp37
 70
     1
102
RTVSPropertyOp38
 70
     1
102
RTVSPropertyOp39
 70
     1
102
RTVSPropertyOp40
 70
     1
102
RTVSPropertyOp41
 70
     1
102
RTVSPropertyOp42
 70
     1
102
RTVSPropertyOp43
 70
     1
102
RTVSPropertyOp44
 70
     1
102
RTVSPropertyOp45
 70
     1
102
RTVSPropertyOp46
 70
     1
102
RTVSPropertyOp47
 70
     1
102
RTVSPropertyOp48
 70
     1
102
RTVSPropertyOp49
 70
     1
102
RTVSPropertyOp50
 70
     1
102
RTVSPropertyOp51
 70
     0
102
RTVSPropertyOp52
 70
     0
102
RTVSPropertyOp53
 70
     1
102
RTVSPropertyOp54
 70
     1
102
RTVSPropertyOp55
 70
     1
102
RTVSPropertyOp56
 70
     1
102
RTVSPropertyOp57
 70
     1
102
RTVSPropertyOp58
 70
     1
102
RTVSPropertyOp59
 70
     1
102
RTVSPropertyOp60
 70
     1
102
RTVSPropertyOp61
 70
     1
102
RTVSPropertyOp62
 70
     1
  0
XRECORD
  5
549
102
{ACAD_REACTORS
330
548
102
}
330
548
100
AcDbXrecord
280
     1
102
RTVSPost2010Prop28
280
     0
102
RTVSPost2010PropOp28
 70
     1
102
RTVSPost2010Prop29
280
     1
102
RTVSPost2010PropOp29
 70
     1
102
RTVSPost2010Prop30
280
     1
102
RTVSPost2010PropOp30
 70
     1
102
RTVSPost2010Prop31
280
     0
102
RTVSPost2010PropOp31
 70
     1
102
RTVSPost2010Prop32
280
     0
102
RTVSPost2010PropOp32
 70
     1
102
RTVSPost2010Prop33
280
     0
102
RTVSPost2010PropOp33
 70
     1
102
RTVSPost2010Prop34
280
     0
102
RTVSPost2010PropOp34
 70
     1
102
RTVSPost2010Prop35
280
     0
102
RTVSPost2010PropOp35
 70
     1
102
RTVSPost2010Prop36
280
     0
102
RTVSPost2010PropOp36
 70
     1
102
RTVSPost2010Prop37
 90
       50
102
RTVSPost2010PropOp37
 70
     1
102
RTVSPost2010Prop38
140
0.0
102
RTVSPost2010PropOp38
 70
     1
102
RTVSPost2010Prop39
140
1.0
102
RTVSPost2010PropOp39
 70
     1
102
RTVSPost2010Prop40
 90
        0
102
RTVSPost2010PropOp40
 70
     1
102
RTVSPost2010Prop41ColorIndex
 90
       18
102
RTVSPost2010Prop41ColorRGB
 90
        0
102
RTVSPost2010PropOp41
 70
     1
102
RTVSPost2010Prop42
 90
       50
102
RTVSPost2010PropOp42
 70
     1
102
RTVSPost2010Prop43
 90
        3
102
RTVSPost2010PropOp43
 70
     1
102
RTVSPost2010Prop44ColorIndex
 90
        5
102
RTVSPost2010Prop44ColorRGB
 90
      255
102
RTVSPost2010PropOp44
 70
     1
102
RTVSPost2010Prop45
280
     0
102
RTVSPost2010PropOp45
 70
     1
102
RTVSPost2010Prop46
 90
       50
102
RTVSPost2010PropOp46
 70
     1
102
RTVSPost2010Prop47
 90
       50
102
RTVSPost2010PropOp47
 70
     1
102
RTVSPost2010Prop48
 90
       50
102
RTVSPost2010PropOp48
 70
     1
102
RTVSPost2010Prop49
280
     0
102
RTVSPost2010PropOp49
 70
     1
102
RTVSPost2010Prop50
 90
       50
102
RTVSPost2010PropOp50
 70
     1
102
RTVSPost2010Prop51ColorIndex
 90
      256
102
RTVSPost2010Prop51ColorRGB
 90
-16777216
102
RTVSPost2010PropOp51
 70
     0
102
RTVSPost2010Prop52
140
1.0
102
RTVSPost2010PropOp52
 70
     0
102
RTVSPost2010Prop53
 90
        2
102
RTVSPost2010PropOp53
 70
     1
102
RTVSPost2010Prop54
  1
strokes_ogs.tif
102
RTVSPost2010PropOp54
 70
     1
102
RTVSPost2010Prop55
280
     0
102
RTVSPost2010PropOp55
 70
     1
102
RTVSPost2010Prop56
140
1.0
102
RTVSPost2010PropOp56
 70
     1
102
RTVSPost2010Prop57
140
1.0
102
RTVSPost2010PropOp57
 70
     1
102
RTVSPropertyOp0
 70
     1
102
RTVSPropertyOp1
 70
     1
102
RTVSPropertyOp2
 70
     1
102
RTVSPropertyOp3
 70
     1
102
RTVSPropertyOp4
 70
     1
102
RTVSPropertyOp5
 70
     1
102
RTVSPropertyOp6
 70
     1
102
RTVSPropertyOp7
 70
     1
102
RTVSPropertyOp8
 70
     1
102
RTVSPropertyOp9
 70
     1
102
RTVSPropertyOp10
 70
     1
102
RTVSPropertyOp11
 70
     1
102
RTVSPropertyOp12
 70
     1
102
RTVSPropertyOp13
 70
     1
102
RTVSPropertyOp14
 70
     1
102
RTVSPropertyOp15
 70
     1
102
RTVSPropertyOp16
 70
     1
102
RTVSPropertyOp17
 70
     1
102
RTVSPropertyOp18
 70
     1
102
RTVSPropertyOp19
 70
     1
102
RTVSPropertyOp20
 70
     1
102
RTVSPropertyOp21
 70
     1
102
RTVSPropertyOp22
 70
     1
102
RTVSPropertyOp23
 70
     1
102
RTVSPropertyOp24
 70
     1
102
RTVSPropertyOp25
 70
     1
102
RTVSPropertyOp26
 70
     1
102
RTVSPropertyOp27
 70
     1
102
RTVSPropertyOp28
 70
     1
102
RTVSPropertyOp29
 70
     1
102
RTVSPropertyOp30
 70
     1
102
RTVSPropertyOp31
 70
     1
102
RTVSPropertyOp32
 70
     1
102
RTVSPropertyOp33
 70
     1
102
RTVSPropertyOp34
 70
     1
102
RTVSPropertyOp35
 70
     1
102
RTVSPropertyOp36
 70
     1
102
RTVSPropertyOp37
 70
     1
102
RTVSPropertyOp38
 70
     1
102
RTVSPropertyOp39
 70
     1
102
RTVSPropertyOp40
 70
     1
102
RTVSPropertyOp41
 70
     1
102
RTVSPropertyOp42
 70
     1
102
RTVSPropertyOp43
 70
     1
102
RTVSPropertyOp44
 70
     1
102
RTVSPropertyOp45
 70
     1
102
RTVSPropertyOp46
 70
     1
102
RTVSPropertyOp47
 70
     1
102
RTVSPropertyOp48
 70
     1
102
RTVSPropertyOp49
 70
     1
102
RTVSPropertyOp50
 70
     1
102
RTVSPropertyOp51
 70
     0
102
RTVSPropertyOp52
 70
     0
102
RTVSPropertyOp53
 70
     1
102
RTVSPropertyOp54
 70
     1
102
RTVSPropertyOp55
 70
     1
102
RTVSPropertyOp56
 70
     1
102
RTVSPropertyOp57
 70
     1
102
RTVSPropertyOp58
 70
     1
102
RTVSPropertyOp59
 70
     1
102
RTVSPropertyOp60
 70
     1
102
RTVSPropertyOp61
 70
     1
102
RTVSPropertyOp62
 70
     1
  0
XRECORD
  5
54D
102
{ACAD_REACTORS
330
54C
102
}
330
54C
100
AcDbXrecord
280
     1
102
RTVSPost2010Prop28
280
     0
102
RTVSPost2010PropOp28
 70
     1
102
RTVSPost2010Prop29
280
     1
102
RTVSPost2010PropOp29
 70
     1
102
RTVSPost2010Prop30
280
     1
102
RTVSPost2010PropOp30
 70
     1
102
RTVSPost2010Prop31
280
     0
102
RTVSPost2010PropOp31
 70
     1
102
RTVSPost2010Prop32
280
     0
102
RTVSPost2010PropOp32
 70
     1
102
RTVSPost2010Prop33
280
     0
102
RTVSPost2010PropOp33
 70
     1
102
RTVSPost2010Prop34
280
     0
102
RTVSPost2010PropOp34
 70
     1
102
RTVSPost2010Prop35
280
     0
102
RTVSPost2010PropOp35
 70
     1
102
RTVSPost2010Prop36
280
     0
102
RTVSPost2010PropOp36
 70
     1
102
RTVSPost2010Prop37
 90
       50
102
RTVSPost2010PropOp37
 70
     1
102
RTVSPost2010Prop38
140
0.0
102
RTVSPost2010PropOp38
 70
     1
102
RTVSPost2010Prop39
140
1.0
102
RTVSPost2010PropOp39
 70
     1
102
RTVSPost2010Prop40
 90
        0
102
RTVSPost2010PropOp40
 70
     1
102
RTVSPost2010Prop41ColorIndex
 90
       18
102
RTVSPost2010Prop41ColorRGB
 90
        0
102
RTVSPost2010PropOp41
 70
     1
102
RTVSPost2010Prop42
 90
       50
102
RTVSPost2010PropOp42
 70
     1
102
RTVSPost2010Prop43
 90
        3
102
RTVSPost2010PropOp43
 70
     1
102
RTVSPost2010Prop44ColorIndex
 90
        5
102
RTVSPost2010Prop44ColorRGB
 90
      255
102
RTVSPost2010PropOp44
 70
     1
102
RTVSPost2010Prop45
280
     0
102
RTVSPost2010PropOp45
 70
     1
102
RTVSPost2010Prop46
 90
       50
102
RTVSPost2010PropOp46
 70
     1
102
RTVSPost2010Prop47
 90
       50
102
RTVSPost2010PropOp47
 70
     1
102
RTVSPost2010Prop48
 90
       50
102
RTVSPost2010PropOp48
 70
     1
102
RTVSPost2010Prop49
280
     0
102
RTVSPost2010PropOp49
 70
     1
102
RTVSPost2010Prop50
 90
       50
102
RTVSPost2010PropOp50
 70
     1
102
RTVSPost2010Prop51ColorIndex
 90
      256
102
RTVSPost2010Prop51ColorRGB
 90
-16777216
102
RTVSPost2010PropOp51
 70
     0
102
RTVSPost2010Prop52
140
1.0
102
RTVSPost2010PropOp52
 70
     0
102
RTVSPost2010Prop53
 90
        2
102
RTVSPost2010PropOp53
 70
     1
102
RTVSPost2010Prop54
  1
strokes_ogs.tif
102
RTVSPost2010PropOp54
 70
     1
102
RTVSPost2010Prop55
280
     0
102
RTVSPost2010PropOp55
 70
     1
102
RTVSPost2010Prop56
140
1.0
102
RTVSPost2010PropOp56
 70
     1
102
RTVSPost2010Prop57
140
1.0
102
RTVSPost2010PropOp57
 70
     1
102
RTVSPropertyOp0
 70
     1
102
RTVSPropertyOp1
 70
     1
102
RTVSPropertyOp2
 70
     1
102
RTVSPropertyOp3
 70
     1
102
RTVSPropertyOp4
 70
     1
102
RTVSPropertyOp5
 70
     1
102
RTVSPropertyOp6
 70
     1
102
RTVSPropertyOp7
 70
     1
102
RTVSPropertyOp8
 70
     1
102
RTVSPropertyOp9
 70
     1
102
RTVSPropertyOp10
 70
     1
102
RTVSPropertyOp11
 70
     1
102
RTVSPropertyOp12
 70
     1
102
RTVSPropertyOp13
 70
     1
102
RTVSPropertyOp14
 70
     1
102
RTVSPropertyOp15
 70
     1
102
RTVSPropertyOp16
 70
     1
102
RTVSPropertyOp17
 70
     1
102
RTVSPropertyOp18
 70
     1
102
RTVSPropertyOp19
 70
     1
102
RTVSPropertyOp20
 70
     1
102
RTVSPropertyOp21
 70
     1
102
RTVSPropertyOp22
 70
     1
102
RTVSPropertyOp23
 70
     1
102
RTVSPropertyOp24
 70
     1
102
RTVSPropertyOp25
 70
     1
102
RTVSPropertyOp26
 70
     1
102
RTVSPropertyOp27
 70
     1
102
RTVSPropertyOp28
 70
     1
102
RTVSPropertyOp29
 70
     1
102
RTVSPropertyOp30
 70
     1
102
RTVSPropertyOp31
 70
     1
102
RTVSPropertyOp32
 70
     1
102
RTVSPropertyOp33
 70
     1
102
RTVSPropertyOp34
 70
     1
102
RTVSPropertyOp35
 70
     1
102
RTVSPropertyOp36
 70
     1
102
RTVSPropertyOp37
 70
     1
102
RTVSPropertyOp38
 70
     1
102
RTVSPropertyOp39
 70
     1
102
RTVSPropertyOp40
 70
     1
102
RTVSPropertyOp41
 70
     1
102
RTVSPropertyOp42
 70
     1
102
RTVSPropertyOp43
 70
     1
102
RTVSPropertyOp44
 70
     1
102
RTVSPropertyOp45
 70
     1
102
RTVSPropertyOp46
 70
     1
102
RTVSPropertyOp47
 70
     1
102
RTVSPropertyOp48
 70
     1
102
RTVSPropertyOp49
 70
     1
102
RTVSPropertyOp50
 70
     1
102
RTVSPropertyOp51
 70
     0
102
RTVSPropertyOp52
 70
     0
102
RTVSPropertyOp53
 70
     1
102
RTVSPropertyOp54
 70
     1
102
RTVSPropertyOp55
 70
     1
102
RTVSPropertyOp56
 70
     1
102
RTVSPropertyOp57
 70
     1
102
RTVSPropertyOp58
 70
     1
102
RTVSPropertyOp59
 70
     1
102
RTVSPropertyOp60
 70
     1
102
RTVSPropertyOp61
 70
     1
102
RTVSPropertyOp62
 70
     1
  0
XRECORD
  5
567
102
{ACAD_REACTORS
330
566
102
}
330
566
100
AcDbXrecord
280
     1
102
RTVSPost2010Prop28
280
     0
102
RTVSPost2010PropOp28
 70
     1
102
RTVSPost2010Prop29
280
     1
102
RTVSPost2010PropOp29
 70
     1
102
RTVSPost2010Prop30
280
     1
102
RTVSPost2010PropOp30
 70
     1
102
RTVSPost2010Prop31
280
     0
102
RTVSPost2010PropOp31
 70
     1
102
RTVSPost2010Prop32
280
     0
102
RTVSPost2010PropOp32
 70
     1
102
RTVSPost2010Prop33
280
     0
102
RTVSPost2010PropOp33
 70
     1
102
RTVSPost2010Prop34
280
     0
102
RTVSPost2010PropOp34
 70
     1
102
RTVSPost2010Prop35
280
     0
102
RTVSPost2010PropOp35
 70
     1
102
RTVSPost2010Prop36
280
     0
102
RTVSPost2010PropOp36
 70
     1
102
RTVSPost2010Prop37
 90
       50
102
RTVSPost2010PropOp37
 70
     0
102
RTVSPost2010Prop38
140
0.0
102
RTVSPost2010PropOp38
 70
     0
102
RTVSPost2010Prop39
140
1.0
102
RTVSPost2010PropOp39
 70
     0
102
RTVSPost2010Prop40
 90
        0
102
RTVSPost2010PropOp40
 70
     0
102
RTVSPost2010Prop41ColorIndex
 90
       18
102
RTVSPost2010Prop41ColorRGB
 90
        0
102
RTVSPost2010PropOp41
 70
     0
102
RTVSPost2010Prop42
 90
       50
102
RTVSPost2010PropOp42
 70
     0
102
RTVSPost2010Prop43
 90
        3
102
RTVSPost2010PropOp43
 70
     0
102
RTVSPost2010Prop44ColorIndex
 90
        5
102
RTVSPost2010Prop44ColorRGB
 90
      255
102
RTVSPost2010PropOp44
 70
     0
102
RTVSPost2010Prop45
280
     0
102
RTVSPost2010PropOp45
 70
     1
102
RTVSPost2010Prop46
 90
       50
102
RTVSPost2010PropOp46
 70
     0
102
RTVSPost2010Prop47
 90
       50
102
RTVSPost2010PropOp47
 70
     0
102
RTVSPost2010Prop48
 90
       50
102
RTVSPost2010PropOp48
 70
     0
102
RTVSPost2010Prop49
280
     0
102
RTVSPost2010PropOp49
 70
     1
102
RTVSPost2010Prop50
 90
       50
102
RTVSPost2010PropOp50
 70
     0
102
RTVSPost2010Prop51ColorIndex
 90
      256
102
RTVSPost2010Prop51ColorRGB
 90
-16777216
102
RTVSPost2010PropOp51
 70
     0
102
RTVSPost2010Prop52
140
1.0
102
RTVSPost2010PropOp52
 70
     0
102
RTVSPost2010Prop53
 90
        2
102
RTVSPost2010PropOp53
 70
     0
102
RTVSPost2010Prop54
  1
strokes_ogs.tif
102
RTVSPost2010PropOp54
 70
     0
102
RTVSPost2010Prop55
280
     0
102
RTVSPost2010PropOp55
 70
     1
102
RTVSPost2010Prop56
140
1.0
102
RTVSPost2010PropOp56
 70
     0
102
RTVSPost2010Prop57
140
1.0
102
RTVSPost2010PropOp57
 70
     0
102
RTVSPropertyOp0
 70
     0
102
RTVSPropertyOp1
 70
     0
102
RTVSPropertyOp2
 70
     0
102
RTVSPropertyOp3
 70
     0
102
RTVSPropertyOp4
 70
     0
102
RTVSPropertyOp5
 70
     0
102
RTVSPropertyOp6
 70
     0
102
RTVSPropertyOp7
 70
     0
102
RTVSPropertyOp8
 70
     0
102
RTVSPropertyOp9
 70
     0
102
RTVSPropertyOp10
 70
     0
102
RTVSPropertyOp11
 70
     0
102
RTVSPropertyOp12
 70
     0
102
RTVSPropertyOp13
 70
     0
102
RTVSPropertyOp14
 70
     2
102
RTVSPropertyOp15
 70
     0
102
RTVSPropertyOp16
 70
     0
102
RTVSPropertyOp17
 70
     0
102
RTVSPropertyOp18
 70
     0
102
RTVSPropertyOp19
 70
     0
102
RTVSPropertyOp20
 70
     0
102
RTVSPropertyOp21
 70
     0
102
RTVSPropertyOp22
 70
     0
102
RTVSPropertyOp23
 70
     0
102
RTVSPropertyOp24
 70
     0
102
RTVSPropertyOp25
 70
     0
102
RTVSPropertyOp26
 70
     0
102
RTVSPropertyOp27
 70
     0
102
RTVSPropertyOp28
 70
     1
102
RTVSPropertyOp29
 70
     1
102
RTVSPropertyOp30
 70
     1
102
RTVSPropertyOp31
 70
     1
102
RTVSPropertyOp32
 70
     1
102
RTVSPropertyOp33
 70
     1
102
RTVSPropertyOp34
 70
     1
102
RTVSPropertyOp35
 70
     1
102
RTVSPropertyOp36
 70
     1
102
RTVSPropertyOp37
 70
     0
102
RTVSPropertyOp38
 70
     0
102
RTVSPropertyOp39
 70
     0
102
RTVSPropertyOp40
 70
     0
102
RTVSPropertyOp41
 70
     0
102
RTVSPropertyOp42
 70
     0
102
RTVSPropertyOp43
 70
     0
102
RTVSPropertyOp44
 70
     0
102
RTVSPropertyOp45
 70
     1
102
RTVSPropertyOp46
 70
     0
102
RTVSPropertyOp47
 70
     0
102
RTVSPropertyOp48
 70
     0
102
RTVSPropertyOp49
 70
     1
102
RTVSPropertyOp50
 70
     0
102
RTVSPropertyOp51
 70
     0
102
RTVSPropertyOp52
 70
     0
102
RTVSPropertyOp53
 70
     0
102
RTVSPropertyOp54
 70
     0
102
RTVSPropertyOp55
 70
     1
102
RTVSPropertyOp56
 70
     0
102
RTVSPropertyOp57
 70
     0
102
RTVSPropertyOp58
 70
     0
102
RTVSPropertyOp59
 70
     0
102
RTVSPropertyOp60
 70
     0
102
RTVSPropertyOp61
 70
     0
102
RTVSPropertyOp62
 70
     0
  0
XRECORD
  5
555
102
{ACAD_REACTORS
330
554
102
}
330
554
100
AcDbXrecord
280
     1
102
RTVSPost2010Prop28
280
     0
102
RTVSPost2010PropOp28
 70
     1
102
RTVSPost2010Prop29
280
     1
102
RTVSPost2010PropOp29
 70
     1
102
RTVSPost2010Prop30
280
     1
102
RTVSPost2010PropOp30
 70
     1
102
RTVSPost2010Prop31
280
     0
102
RTVSPost2010PropOp31
 70
     1
102
RTVSPost2010Prop32
280
     0
102
RTVSPost2010PropOp32
 70
     1
102
RTVSPost2010Prop33
280
     0
102
RTVSPost2010PropOp33
 70
     1
102
RTVSPost2010Prop34
280
     0
102
RTVSPost2010PropOp34
 70
     1
102
RTVSPost2010Prop35
280
     0
102
RTVSPost2010PropOp35
 70
     1
102
RTVSPost2010Prop36
280
     0
102
RTVSPost2010PropOp36
 70
     1
102
RTVSPost2010Prop37
 90
       50
102
RTVSPost2010PropOp37
 70
     1
102
RTVSPost2010Prop38
140
0.0
102
RTVSPost2010PropOp38
 70
     1
102
RTVSPost2010Prop39
140
1.0
102
RTVSPost2010PropOp39
 70
     1
102
RTVSPost2010Prop40
 90
        0
102
RTVSPost2010PropOp40
 70
     1
102
RTVSPost2010Prop41ColorIndex
 90
       18
102
RTVSPost2010Prop41ColorRGB
 90
        0
102
RTVSPost2010PropOp41
 70
     1
102
RTVSPost2010Prop42
 90
       50
102
RTVSPost2010PropOp42
 70
     1
102
RTVSPost2010Prop43
 90
        3
102
RTVSPost2010PropOp43
 70
     1
102
RTVSPost2010Prop44ColorIndex
 90
        5
102
RTVSPost2010Prop44ColorRGB
 90
      255
102
RTVSPost2010PropOp44
 70
     1
102
RTVSPost2010Prop45
280
     0
102
RTVSPost2010PropOp45
 70
     1
102
RTVSPost2010Prop46
 90
       50
102
RTVSPost2010PropOp46
 70
     1
102
RTVSPost2010Prop47
 90
       50
102
RTVSPost2010PropOp47
 70
     1
102
RTVSPost2010Prop48
 90
       50
102
RTVSPost2010PropOp48
 70
     1
102
RTVSPost2010Prop49
280
     0
102
RTVSPost2010PropOp49
 70
     1
102
RTVSPost2010Prop50
 90
       50
102
RTVSPost2010PropOp50
 70
     1
102
RTVSPost2010Prop51ColorIndex
 90
      256
102
RTVSPost2010Prop51ColorRGB
 90
-16777216
102
RTVSPost2010PropOp51
 70
     0
102
RTVSPost2010Prop52
140
1.0
102
RTVSPost2010PropOp52
 70
     0
102
RTVSPost2010Prop53
 90
        2
102
RTVSPost2010PropOp53
 70
     1
102
RTVSPost2010Prop54
  1
strokes_ogs.tif
102
RTVSPost2010PropOp54
 70
     1
102
RTVSPost2010Prop55
280
     0
102
RTVSPost2010PropOp55
 70
     1
102
RTVSPost2010Prop56
140
1.0
102
RTVSPost2010PropOp56
 70
     1
102
RTVSPost2010Prop57
140
1.0
102
RTVSPost2010PropOp57
 70
     1
102
RTVSPropertyOp0
 70
     1
102
RTVSPropertyOp1
 70
     1
102
RTVSPropertyOp2
 70
     1
102
RTVSPropertyOp3
 70
     1
102
RTVSPropertyOp4
 70
     1
102
RTVSPropertyOp5
 70
     1
102
RTVSPropertyOp6
 70
     1
102
RTVSPropertyOp7
 70
     1
102
RTVSPropertyOp8
 70
     1
102
RTVSPropertyOp9
 70
     1
102
RTVSPropertyOp10
 70
     1
102
RTVSPropertyOp11
 70
     1
102
RTVSPropertyOp12
 70
     1
102
RTVSPropertyOp13
 70
     1
102
RTVSPropertyOp14
 70
     1
102
RTVSPropertyOp15
 70
     1
102
RTVSPropertyOp16
 70
     1
102
RTVSPropertyOp17
 70
     1
102
RTVSPropertyOp18
 70
     1
102
RTVSPropertyOp19
 70
     1
102
RTVSPropertyOp20
 70
     1
102
RTVSPropertyOp21
 70
     1
102
RTVSPropertyOp22
 70
     1
102
RTVSPropertyOp23
 70
     1
102
RTVSPropertyOp24
 70
     1
102
RTVSPropertyOp25
 70
     1
102
RTVSPropertyOp26
 70
     1
102
RTVSPropertyOp27
 70
     1
102
RTVSPropertyOp28
 70
     1
102
RTVSPropertyOp29
 70
     1
102
RTVSPropertyOp30
 70
     1
102
RTVSPropertyOp31
 70
     1
102
RTVSPropertyOp32
 70
     1
102
RTVSPropertyOp33
 70
     1
102
RTVSPropertyOp34
 70
     1
102
RTVSPropertyOp35
 70
     1
102
RTVSPropertyOp36
 70
     1
102
RTVSPropertyOp37
 70
     1
102
RTVSPropertyOp38
 70
     1
102
RTVSPropertyOp39
 70
     1
102
RTVSPropertyOp40
 70
     1
102
RTVSPropertyOp41
 70
     1
102
RTVSPropertyOp42
 70
     1
102
RTVSPropertyOp43
 70
     1
102
RTVSPropertyOp44
 70
     1
102
RTVSPropertyOp45
 70
     1
102
RTVSPropertyOp46
 70
     1
102
RTVSPropertyOp47
 70
     1
102
RTVSPropertyOp48
 70
     1
102
RTVSPropertyOp49
 70
     1
102
RTVSPropertyOp50
 70
     1
102
RTVSPropertyOp51
 70
     0
102
RTVSPropertyOp52
 70
     0
102
RTVSPropertyOp53
 70
     1
102
RTVSPropertyOp54
 70
     1
102
RTVSPropertyOp55
 70
     1
102
RTVSPropertyOp56
 70
     1
102
RTVSPropertyOp57
 70
     1
102
RTVSPropertyOp58
 70
     1
102
RTVSPropertyOp59
 70
     1
102
RTVSPropertyOp60
 70
     1
102
RTVSPropertyOp61
 70
     1
102
RTVSPropertyOp62
 70
     1
  0
XRECORD
  5
539
102
{ACAD_REACTORS
330
538
102
}
330
538
100
AcDbXrecord
280
     1
102
RTVSPost2010Prop28
280
     0
102
RTVSPost2010PropOp28
 70
     1
102
RTVSPost2010Prop29
280
     1
102
RTVSPost2010PropOp29
 70
     1
102
RTVSPost2010Prop30
280
     1
102
RTVSPost2010PropOp30
 70
     1
102
RTVSPost2010Prop31
280
     0
102
RTVSPost2010PropOp31
 70
     1
102
RTVSPost2010Prop32
280
     0
102
RTVSPost2010PropOp32
 70
     1
102
RTVSPost2010Prop33
280
     0
102
RTVSPost2010PropOp33
 70
     1
102
RTVSPost2010Prop34
280
     0
102
RTVSPost2010PropOp34
 70
     1
102
RTVSPost2010Prop35
280
     0
102
RTVSPost2010PropOp35
 70
     1
102
RTVSPost2010Prop36
280
     0
102
RTVSPost2010PropOp36
 70
     1
102
RTVSPost2010Prop37
 90
       50
102
RTVSPost2010PropOp37
 70
     1
102
RTVSPost2010Prop38
140
0.0
102
RTVSPost2010PropOp38
 70
     1
102
RTVSPost2010Prop39
140
1.0
102
RTVSPost2010PropOp39
 70
     1
102
RTVSPost2010Prop40
 90
        0
102
RTVSPost2010PropOp40
 70
     1
102
RTVSPost2010Prop41ColorIndex
 90
       18
102
RTVSPost2010Prop41ColorRGB
 90
        0
102
RTVSPost2010PropOp41
 70
     1
102
RTVSPost2010Prop42
 90
       50
102
RTVSPost2010PropOp42
 70
     1
102
RTVSPost2010Prop43
 90
        3
102
RTVSPost2010PropOp43
 70
     1
102
RTVSPost2010Prop44ColorIndex
 90
        5
102
RTVSPost2010Prop44ColorRGB
 90
      255
102
RTVSPost2010PropOp44
 70
     1
102
RTVSPost2010Prop45
280
     0
102
RTVSPost2010PropOp45
 70
     1
102
RTVSPost2010Prop46
 90
       50
102
RTVSPost2010PropOp46
 70
     1
102
RTVSPost2010Prop47
 90
       50
102
RTVSPost2010PropOp47
 70
     1
102
RTVSPost2010Prop48
 90
       50
102
RTVSPost2010PropOp48
 70
     1
102
RTVSPost2010Prop49
280
     0
102
RTVSPost2010PropOp49
 70
     1
102
RTVSPost2010Prop50
 90
       50
102
RTVSPost2010PropOp50
 70
     1
102
RTVSPost2010Prop51ColorIndex
 90
      256
102
RTVSPost2010Prop51ColorRGB
 90
-16777216
102
RTVSPost2010PropOp51
 70
     0
102
RTVSPost2010Prop52
140
1.0
102
RTVSPost2010PropOp52
 70
     0
102
RTVSPost2010Prop53
 90
        2
102
RTVSPost2010PropOp53
 70
     1
102
RTVSPost2010Prop54
  1
strokes_ogs.tif
102
RTVSPost2010PropOp54
 70
     1
102
RTVSPost2010Prop55
280
     0
102
RTVSPost2010PropOp55
 70
     1
102
RTVSPost2010Prop56
140
1.0
102
RTVSPost2010PropOp56
 70
     1
102
RTVSPost2010Prop57
140
1.0
102
RTVSPost2010PropOp57
 70
     1
102
RTVSPropertyOp0
 70
     1
102
RTVSPropertyOp1
 70
     1
102
RTVSPropertyOp2
 70
     1
102
RTVSPropertyOp3
 70
     1
102
RTVSPropertyOp4
 70
     1
102
RTVSPropertyOp5
 70
     1
102
RTVSPropertyOp6
 70
     1
102
RTVSPropertyOp7
 70
     1
102
RTVSPropertyOp8
 70
     1
102
RTVSPropertyOp9
 70
     1
102
RTVSPropertyOp10
 70
     1
102
RTVSPropertyOp11
 70
     1
102
RTVSPropertyOp12
 70
     1
102
RTVSPropertyOp13
 70
     1
102
RTVSPropertyOp14
 70
     1
102
RTVSPropertyOp15
 70
     1
102
RTVSPropertyOp16
 70
     1
102
RTVSPropertyOp17
 70
     1
102
RTVSPropertyOp18
 70
     1
102
RTVSPropertyOp19
 70
     1
102
RTVSPropertyOp20
 70
     1
102
RTVSPropertyOp21
 70
     1
102
RTVSPropertyOp22
 70
     1
102
RTVSPropertyOp23
 70
     1
102
RTVSPropertyOp24
 70
     1
102
RTVSPropertyOp25
 70
     1
102
RTVSPropertyOp26
 70
     1
102
RTVSPropertyOp27
 70
     1
102
RTVSPropertyOp28
 70
     1
102
RTVSPropertyOp29
 70
     1
102
RTVSPropertyOp30
 70
     1
102
RTVSPropertyOp31
 70
     1
102
RTVSPropertyOp32
 70
     1
102
RTVSPropertyOp33
 70
     1
102
RTVSPropertyOp34
 70
     1
102
RTVSPropertyOp35
 70
     1
102
RTVSPropertyOp36
 70
     1
102
RTVSPropertyOp37
 70
     1
102
RTVSPropertyOp38
 70
     1
102
RTVSPropertyOp39
 70
     1
102
RTVSPropertyOp40
 70
     1
102
RTVSPropertyOp41
 70
     1
102
RTVSPropertyOp42
 70
     1
102
RTVSPropertyOp43
 70
     1
102
RTVSPropertyOp44
 70
     1
102
RTVSPropertyOp45
 70
     1
102
RTVSPropertyOp46
 70
     1
102
RTVSPropertyOp47
 70
     1
102
RTVSPropertyOp48
 70
     1
102
RTVSPropertyOp49
 70
     1
102
RTVSPropertyOp50
 70
     1
102
RTVSPropertyOp51
 70
     0
102
RTVSPropertyOp52
 70
     0
102
RTVSPropertyOp53
 70
     1
102
RTVSPropertyOp54
 70
     1
102
RTVSPropertyOp55
 70
     1
102
RTVSPropertyOp56
 70
     1
102
RTVSPropertyOp57
 70
     1
102
RTVSPropertyOp58
 70
     1
102
RTVSPropertyOp59
 70
     1
102
RTVSPropertyOp60
 70
     1
102
RTVSPropertyOp61
 70
     1
102
RTVSPropertyOp62
 70
     1
  0
XRECORD
  5
53B
102
{ACAD_REACTORS
330
53A
102
}
330
53A
100
AcDbXrecord
280
     1
102
RTVSPost2010Prop28
280
     0
102
RTVSPost2010PropOp28
 70
     1
102
RTVSPost2010Prop29
280
     1
102
RTVSPost2010PropOp29
 70
     1
102
RTVSPost2010Prop30
280
     1
102
RTVSPost2010PropOp30
 70
     1
102
RTVSPost2010Prop31
280
     0
102
RTVSPost2010PropOp31
 70
     1
102
RTVSPost2010Prop32
280
     0
102
RTVSPost2010PropOp32
 70
     1
102
RTVSPost2010Prop33
280
     0
102
RTVSPost2010PropOp33
 70
     1
102
RTVSPost2010Prop34
280
     0
102
RTVSPost2010PropOp34
 70
     1
102
RTVSPost2010Prop35
280
     0
102
RTVSPost2010PropOp35
 70
     1
102
RTVSPost2010Prop36
280
     0
102
RTVSPost2010PropOp36
 70
     1
102
RTVSPost2010Prop37
 90
       50
102
RTVSPost2010PropOp37
 70
     1
102
RTVSPost2010Prop38
140
0.0
102
RTVSPost2010PropOp38
 70
     1
102
RTVSPost2010Prop39
140
1.0
102
RTVSPost2010PropOp39
 70
     1
102
RTVSPost2010Prop40
 90
        0
102
RTVSPost2010PropOp40
 70
     1
102
RTVSPost2010Prop41ColorIndex
 90
       18
102
RTVSPost2010Prop41ColorRGB
 90
        0
102
RTVSPost2010PropOp41
 70
     1
102
RTVSPost2010Prop42
 90
       50
102
RTVSPost2010PropOp42
 70
     1
102
RTVSPost2010Prop43
 90
        3
102
RTVSPost2010PropOp43
 70
     1
102
RTVSPost2010Prop44ColorIndex
 90
        5
102
RTVSPost2010Prop44ColorRGB
 90
      255
102
RTVSPost2010PropOp44
 70
     1
102
RTVSPost2010Prop45
280
     0
102
RTVSPost2010PropOp45
 70
     1
102
RTVSPost2010Prop46
 90
       50
102
RTVSPost2010PropOp46
 70
     1
102
RTVSPost2010Prop47
 90
       50
102
RTVSPost2010PropOp47
 70
     1
102
RTVSPost2010Prop48
 90
       50
102
RTVSPost2010PropOp48
 70
     1
102
RTVSPost2010Prop49
280
     0
102
RTVSPost2010PropOp49
 70
     1
102
RTVSPost2010Prop50
 90
       50
102
RTVSPost2010PropOp50
 70
     1
102
RTVSPost2010Prop51ColorIndex
 90
      256
102
RTVSPost2010Prop51ColorRGB
 90
-16777216
102
RTVSPost2010PropOp51
 70
     0
102
RTVSPost2010Prop52
140
1.0
102
RTVSPost2010PropOp52
 70
     0
102
RTVSPost2010Prop53
 90
        2
102
RTVSPost2010PropOp53
 70
     1
102
RTVSPost2010Prop54
  1
strokes_ogs.tif
102
RTVSPost2010PropOp54
 70
     1
102
RTVSPost2010Prop55
280
     0
102
RTVSPost2010PropOp55
 70
     1
102
RTVSPost2010Prop56
140
1.0
102
RTVSPost2010PropOp56
 70
     1
102
RTVSPost2010Prop57
140
1.0
102
RTVSPost2010PropOp57
 70
     1
102
RTVSPropertyOp0
 70
     1
102
RTVSPropertyOp1
 70
     1
102
RTVSPropertyOp2
 70
     1
102
RTVSPropertyOp3
 70
     1
102
RTVSPropertyOp4
 70
     1
102
RTVSPropertyOp5
 70
     1
102
RTVSPropertyOp6
 70
     1
102
RTVSPropertyOp7
 70
     1
102
RTVSPropertyOp8
 70
     1
102
RTVSPropertyOp9
 70
     1
102
RTVSPropertyOp10
 70
     1
102
RTVSPropertyOp11
 70
     1
102
RTVSPropertyOp12
 70
     1
102
RTVSPropertyOp13
 70
     1
102
RTVSPropertyOp14
 70
     1
102
RTVSPropertyOp15
 70
     1
102
RTVSPropertyOp16
 70
     1
102
RTVSPropertyOp17
 70
     1
102
RTVSPropertyOp18
 70
     1
102
RTVSPropertyOp19
 70
     1
102
RTVSPropertyOp20
 70
     1
102
RTVSPropertyOp21
 70
     1
102
RTVSPropertyOp22
 70
     1
102
RTVSPropertyOp23
 70
     1
102
RTVSPropertyOp24
 70
     1
102
RTVSPropertyOp25
 70
     1
102
RTVSPropertyOp26
 70
     1
102
RTVSPropertyOp27
 70
     1
102
RTVSPropertyOp28
 70
     1
102
RTVSPropertyOp29
 70
     1
102
RTVSPropertyOp30
 70
     1
102
RTVSPropertyOp31
 70
     1
102
RTVSPropertyOp32
 70
     1
102
RTVSPropertyOp33
 70
     1
102
RTVSPropertyOp34
 70
     1
102
RTVSPropertyOp35
 70
     1
102
RTVSPropertyOp36
 70
     1
102
RTVSPropertyOp37
 70
     1
102
RTVSPropertyOp38
 70
     1
102
RTVSPropertyOp39
 70
     1
102
RTVSPropertyOp40
 70
     1
102
RTVSPropertyOp41
 70
     1
102
RTVSPropertyOp42
 70
     1
102
RTVSPropertyOp43
 70
     1
102
RTVSPropertyOp44
 70
     1
102
RTVSPropertyOp45
 70
     1
102
RTVSPropertyOp46
 70
     1
102
RTVSPropertyOp47
 70
     1
102
RTVSPropertyOp48
 70
     1
102
RTVSPropertyOp49
 70
     1
102
RTVSPropertyOp50
 70
     1
102
RTVSPropertyOp51
 70
     0
102
RTVSPropertyOp52
 70
     0
102
RTVSPropertyOp53
 70
     1
102
RTVSPropertyOp54
 70
     1
102
RTVSPropertyOp55
 70
     1
102
RTVSPropertyOp56
 70
     1
102
RTVSPropertyOp57
 70
     1
102
RTVSPropertyOp58
 70
     1
102
RTVSPropertyOp59
 70
     1
102
RTVSPropertyOp60
 70
     1
102
RTVSPropertyOp61
 70
     1
102
RTVSPropertyOp62
 70
     1
  0
XRECORD
  5
53D
102
{ACAD_REACTORS
330
53C
102
}
330
53C
100
AcDbXrecord
280
     1
102
RTVSPost2010Prop28
280
     0
102
RTVSPost2010PropOp28
 70
     1
102
RTVSPost2010Prop29
280
     1
102
RTVSPost2010PropOp29
 70
     1
102
RTVSPost2010Prop30
280
     1
102
RTVSPost2010PropOp30
 70
     1
102
RTVSPost2010Prop31
280
     0
102
RTVSPost2010PropOp31
 70
     1
102
RTVSPost2010Prop32
280
     0
102
RTVSPost2010PropOp32
 70
     1
102
RTVSPost2010Prop33
280
     0
102
RTVSPost2010PropOp33
 70
     1
102
RTVSPost2010Prop34
280
     0
102
RTVSPost2010PropOp34
 70
     1
102
RTVSPost2010Prop35
280
     0
102
RTVSPost2010PropOp35
 70
     1
102
RTVSPost2010Prop36
280
     0
102
RTVSPost2010PropOp36
 70
     1
102
RTVSPost2010Prop37
 90
       50
102
RTVSPost2010PropOp37
 70
     1
102
RTVSPost2010Prop38
140
0.0
102
RTVSPost2010PropOp38
 70
     1
102
RTVSPost2010Prop39
140
1.0
102
RTVSPost2010PropOp39
 70
     1
102
RTVSPost2010Prop40
 90
        0
102
RTVSPost2010PropOp40
 70
     1
102
RTVSPost2010Prop41ColorIndex
 90
       18
102
RTVSPost2010Prop41ColorRGB
 90
        0
102
RTVSPost2010PropOp41
 70
     1
102
RTVSPost2010Prop42
 90
       50
102
RTVSPost2010PropOp42
 70
     1
102
RTVSPost2010Prop43
 90
        3
102
RTVSPost2010PropOp43
 70
     1
102
RTVSPost2010Prop44ColorIndex
 90
        5
102
RTVSPost2010Prop44ColorRGB
 90
      255
102
RTVSPost2010PropOp44
 70
     1
102
RTVSPost2010Prop45
280
     0
102
RTVSPost2010PropOp45
 70
     1
102
RTVSPost2010Prop46
 90
       50
102
RTVSPost2010PropOp46
 70
     1
102
RTVSPost2010Prop47
 90
       50
102
RTVSPost2010PropOp47
 70
     1
102
RTVSPost2010Prop48
 90
       50
102
RTVSPost2010PropOp48
 70
     1
102
RTVSPost2010Prop49
280
     0
102
RTVSPost2010PropOp49
 70
     1
102
RTVSPost2010Prop50
 90
       50
102
RTVSPost2010PropOp50
 70
     1
102
RTVSPost2010Prop51ColorIndex
 90
      256
102
RTVSPost2010Prop51ColorRGB
 90
-16777216
102
RTVSPost2010PropOp51
 70
     0
102
RTVSPost2010Prop52
140
1.0
102
RTVSPost2010PropOp52
 70
     0
102
RTVSPost2010Prop53
 90
        2
102
RTVSPost2010PropOp53
 70
     1
102
RTVSPost2010Prop54
  1
strokes_ogs.tif
102
RTVSPost2010PropOp54
 70
     1
102
RTVSPost2010Prop55
280
     0
102
RTVSPost2010PropOp55
 70
     1
102
RTVSPost2010Prop56
140
1.0
102
RTVSPost2010PropOp56
 70
     1
102
RTVSPost2010Prop57
140
1.0
102
RTVSPost2010PropOp57
 70
     1
102
RTVSPropertyOp0
 70
     1
102
RTVSPropertyOp1
 70
     1
102
RTVSPropertyOp2
 70
     1
102
RTVSPropertyOp3
 70
     1
102
RTVSPropertyOp4
 70
     1
102
RTVSPropertyOp5
 70
     1
102
RTVSPropertyOp6
 70
     1
102
RTVSPropertyOp7
 70
     1
102
RTVSPropertyOp8
 70
     1
102
RTVSPropertyOp9
 70
     1
102
RTVSPropertyOp10
 70
     1
102
RTVSPropertyOp11
 70
     1
102
RTVSPropertyOp12
 70
     1
102
RTVSPropertyOp13
 70
     1
102
RTVSPropertyOp14
 70
     1
102
RTVSPropertyOp15
 70
     1
102
RTVSPropertyOp16
 70
     1
102
RTVSPropertyOp17
 70
     1
102
RTVSPropertyOp18
 70
     1
102
RTVSPropertyOp19
 70
     1
102
RTVSPropertyOp20
 70
     1
102
RTVSPropertyOp21
 70
     1
102
RTVSPropertyOp22
 70
     1
102
RTVSPropertyOp23
 70
     1
102
RTVSPropertyOp24
 70
     1
102
RTVSPropertyOp25
 70
     1
102
RTVSPropertyOp26
 70
     1
102
RTVSPropertyOp27
 70
     1
102
RTVSPropertyOp28
 70
     1
102
RTVSPropertyOp29
 70
     1
102
RTVSPropertyOp30
 70
     1
102
RTVSPropertyOp31
 70
     1
102
RTVSPropertyOp32
 70
     1
102
RTVSPropertyOp33
 70
     1
102
RTVSPropertyOp34
 70
     1
102
RTVSPropertyOp35
 70
     1
102
RTVSPropertyOp36
 70
     1
102
RTVSPropertyOp37
 70
     1
102
RTVSPropertyOp38
 70
     1
102
RTVSPropertyOp39
 70
     1
102
RTVSPropertyOp40
 70
     1
102
RTVSPropertyOp41
 70
     1
102
RTVSPropertyOp42
 70
     1
102
RTVSPropertyOp43
 70
     1
102
RTVSPropertyOp44
 70
     1
102
RTVSPropertyOp45
 70
     1
102
RTVSPropertyOp46
 70
     1
102
RTVSPropertyOp47
 70
     1
102
RTVSPropertyOp48
 70
     1
102
RTVSPropertyOp49
 70
     1
102
RTVSPropertyOp50
 70
     1
102
RTVSPropertyOp51
 70
     0
102
RTVSPropertyOp52
 70
     0
102
RTVSPropertyOp53
 70
     1
102
RTVSPropertyOp54
 70
     1
102
RTVSPropertyOp55
 70
     1
102
RTVSPropertyOp56
 70
     1
102
RTVSPropertyOp57
 70
     1
102
RTVSPropertyOp58
 70
     1
102
RTVSPropertyOp59
 70
     1
102
RTVSPropertyOp60
 70
     1
102
RTVSPropertyOp61
 70
     1
102
RTVSPropertyOp62
 70
     1
  0
XRECORD
  5
53F
102
{ACAD_REACTORS
330
53E
102
}
330
53E
100
AcDbXrecord
280
     1
102
RTVSPost2010Prop28
280
     0
102
RTVSPost2010PropOp28
 70
     1
102
RTVSPost2010Prop29
280
     1
102
RTVSPost2010PropOp29
 70
     1
102
RTVSPost2010Prop30
280
     1
102
RTVSPost2010PropOp30
 70
     1
102
RTVSPost2010Prop31
280
     0
102
RTVSPost2010PropOp31
 70
     1
102
RTVSPost2010Prop32
280
     0
102
RTVSPost2010PropOp32
 70
     1
102
RTVSPost2010Prop33
280
     0
102
RTVSPost2010PropOp33
 70
     1
102
RTVSPost2010Prop34
280
     0
102
RTVSPost2010PropOp34
 70
     1
102
RTVSPost2010Prop35
280
     0
102
RTVSPost2010PropOp35
 70
     1
102
RTVSPost2010Prop36
280
     0
102
RTVSPost2010PropOp36
 70
     1
102
RTVSPost2010Prop37
 90
       50
102
RTVSPost2010PropOp37
 70
     1
102
RTVSPost2010Prop38
140
0.0
102
RTVSPost2010PropOp38
 70
     1
102
RTVSPost2010Prop39
140
1.0
102
RTVSPost2010PropOp39
 70
     1
102
RTVSPost2010Prop40
 90
        0
102
RTVSPost2010PropOp40
 70
     1
102
RTVSPost2010Prop41ColorIndex
 90
       18
102
RTVSPost2010Prop41ColorRGB
 90
        0
102
RTVSPost2010PropOp41
 70
     1
102
RTVSPost2010Prop42
 90
       50
102
RTVSPost2010PropOp42
 70
     1
102
RTVSPost2010Prop43
 90
        3
102
RTVSPost2010PropOp43
 70
     1
102
RTVSPost2010Prop44ColorIndex
 90
        5
102
RTVSPost2010Prop44ColorRGB
 90
      255
102
RTVSPost2010PropOp44
 70
     1
102
RTVSPost2010Prop45
280
     0
102
RTVSPost2010PropOp45
 70
     1
102
RTVSPost2010Prop46
 90
       50
102
RTVSPost2010PropOp46
 70
     1
102
RTVSPost2010Prop47
 90
       50
102
RTVSPost2010PropOp47
 70
     1
102
RTVSPost2010Prop48
 90
       50
102
RTVSPost2010PropOp48
 70
     1
102
RTVSPost2010Prop49
280
     0
102
RTVSPost2010PropOp49
 70
     1
102
RTVSPost2010Prop50
 90
       50
102
RTVSPost2010PropOp50
 70
     1
102
RTVSPost2010Prop51ColorIndex
 90
      256
102
RTVSPost2010Prop51ColorRGB
 90
-16777216
102
RTVSPost2010PropOp51
 70
     0
102
RTVSPost2010Prop52
140
1.0
102
RTVSPost2010PropOp52
 70
     0
102
RTVSPost2010Prop53
 90
        2
102
RTVSPost2010PropOp53
 70
     1
102
RTVSPost2010Prop54
  1
strokes_ogs.tif
102
RTVSPost2010PropOp54
 70
     1
102
RTVSPost2010Prop55
280
     0
102
RTVSPost2010PropOp55
 70
     1
102
RTVSPost2010Prop56
140
1.0
102
RTVSPost2010PropOp56
 70
     1
102
RTVSPost2010Prop57
140
1.0
102
RTVSPost2010PropOp57
 70
     1
102
RTVSPropertyOp0
 70
     1
102
RTVSPropertyOp1
 70
     1
102
RTVSPropertyOp2
 70
     1
102
RTVSPropertyOp3
 70
     1
102
RTVSPropertyOp4
 70
     1
102
RTVSPropertyOp5
 70
     1
102
RTVSPropertyOp6
 70
     1
102
RTVSPropertyOp7
 70
     1
102
RTVSPropertyOp8
 70
     1
102
RTVSPropertyOp9
 70
     1
102
RTVSPropertyOp10
 70
     1
102
RTVSPropertyOp11
 70
     1
102
RTVSPropertyOp12
 70
     1
102
RTVSPropertyOp13
 70
     1
102
RTVSPropertyOp14
 70
     1
102
RTVSPropertyOp15
 70
     1
102
RTVSPropertyOp16
 70
     1
102
RTVSPropertyOp17
 70
     1
102
RTVSPropertyOp18
 70
     1
102
RTVSPropertyOp19
 70
     1
102
RTVSPropertyOp20
 70
     1
102
RTVSPropertyOp21
 70
     1
102
RTVSPropertyOp22
 70
     1
102
RTVSPropertyOp23
 70
     1
102
RTVSPropertyOp24
 70
     1
102
RTVSPropertyOp25
 70
     1
102
RTVSPropertyOp26
 70
     1
102
RTVSPropertyOp27
 70
     1
102
RTVSPropertyOp28
 70
     1
102
RTVSPropertyOp29
 70
     1
102
RTVSPropertyOp30
 70
     1
102
RTVSPropertyOp31
 70
     1
102
RTVSPropertyOp32
 70
     1
102
RTVSPropertyOp33
 70
     1
102
RTVSPropertyOp34
 70
     1
102
RTVSPropertyOp35
 70
     1
102
RTVSPropertyOp36
 70
     1
102
RTVSPropertyOp37
 70
     1
102
RTVSPropertyOp38
 70
     1
102
RTVSPropertyOp39
 70
     1
102
RTVSPropertyOp40
 70
     1
102
RTVSPropertyOp41
 70
     1
102
RTVSPropertyOp42
 70
     1
102
RTVSPropertyOp43
 70
     1
102
RTVSPropertyOp44
 70
     1
102
RTVSPropertyOp45
 70
     1
102
RTVSPropertyOp46
 70
     1
102
RTVSPropertyOp47
 70
     1
102
RTVSPropertyOp48
 70
     1
102
RTVSPropertyOp49
 70
     1
102
RTVSPropertyOp50
 70
     1
102
RTVSPropertyOp51
 70
     0
102
RTVSPropertyOp52
 70
     0
102
RTVSPropertyOp53
 70
     1
102
RTVSPropertyOp54
 70
     1
102
RTVSPropertyOp55
 70
     1
102
RTVSPropertyOp56
 70
     1
102
RTVSPropertyOp57
 70
     1
102
RTVSPropertyOp58
 70
     1
102
RTVSPropertyOp59
 70
     1
102
RTVSPropertyOp60
 70
     1
102
RTVSPropertyOp61
 70
     1
102
RTVSPropertyOp62
 70
     1
  0
XRECORD
  5
547
102
{ACAD_REACTORS
330
546
102
}
330
546
100
AcDbXrecord
280
     1
102
RTVSPost2010Prop28
280
     0
102
RTVSPost2010PropOp28
 70
     1
102
RTVSPost2010Prop29
280
     1
102
RTVSPost2010PropOp29
 70
     1
102
RTVSPost2010Prop30
280
     1
102
RTVSPost2010PropOp30
 70
     1
102
RTVSPost2010Prop31
280
     0
102
RTVSPost2010PropOp31
 70
     1
102
RTVSPost2010Prop32
280
     0
102
RTVSPost2010PropOp32
 70
     1
102
RTVSPost2010Prop33
280
     0
102
RTVSPost2010PropOp33
 70
     1
102
RTVSPost2010Prop34
280
     0
102
RTVSPost2010PropOp34
 70
     1
102
RTVSPost2010Prop35
280
     0
102
RTVSPost2010PropOp35
 70
     1
102
RTVSPost2010Prop36
280
     0
102
RTVSPost2010PropOp36
 70
     1
102
RTVSPost2010Prop37
 90
       50
102
RTVSPost2010PropOp37
 70
     1
102
RTVSPost2010Prop38
140
0.0
102
RTVSPost2010PropOp38
 70
     1
102
RTVSPost2010Prop39
140
1.0
102
RTVSPost2010PropOp39
 70
     1
102
RTVSPost2010Prop40
 90
        0
102
RTVSPost2010PropOp40
 70
     1
102
RTVSPost2010Prop41ColorIndex
 90
       18
102
RTVSPost2010Prop41ColorRGB
 90
        0
102
RTVSPost2010PropOp41
 70
     1
102
RTVSPost2010Prop42
 90
       50
102
RTVSPost2010PropOp42
 70
     1
102
RTVSPost2010Prop43
 90
        3
102
RTVSPost2010PropOp43
 70
     1
102
RTVSPost2010Prop44ColorIndex
 90
        5
102
RTVSPost2010Prop44ColorRGB
 90
      255
102
RTVSPost2010PropOp44
 70
     1
102
RTVSPost2010Prop45
280
     0
102
RTVSPost2010PropOp45
 70
     1
102
RTVSPost2010Prop46
 90
       50
102
RTVSPost2010PropOp46
 70
     1
102
RTVSPost2010Prop47
 90
       50
102
RTVSPost2010PropOp47
 70
     1
102
RTVSPost2010Prop48
 90
       50
102
RTVSPost2010PropOp48
 70
     1
102
RTVSPost2010Prop49
280
     0
102
RTVSPost2010PropOp49
 70
     1
102
RTVSPost2010Prop50
 90
       50
102
RTVSPost2010PropOp50
 70
     1
102
RTVSPost2010Prop51ColorIndex
 90
      256
102
RTVSPost2010Prop51ColorRGB
 90
-16777216
102
RTVSPost2010PropOp51
 70
     0
102
RTVSPost2010Prop52
140
1.0
102
RTVSPost2010PropOp52
 70
     0
102
RTVSPost2010Prop53
 90
        2
102
RTVSPost2010PropOp53
 70
     1
102
RTVSPost2010Prop54
  1
strokes_ogs.tif
102
RTVSPost2010PropOp54
 70
     1
102
RTVSPost2010Prop55
280
     0
102
RTVSPost2010PropOp55
 70
     1
102
RTVSPost2010Prop56
140
1.0
102
RTVSPost2010PropOp56
 70
     1
102
RTVSPost2010Prop57
140
1.0
102
RTVSPost2010PropOp57
 70
     1
102
RTVSPropertyOp0
 70
     1
102
RTVSPropertyOp1
 70
     1
102
RTVSPropertyOp2
 70
     1
102
RTVSPropertyOp3
 70
     1
102
RTVSPropertyOp4
 70
     1
102
RTVSPropertyOp5
 70
     1
102
RTVSPropertyOp6
 70
     1
102
RTVSPropertyOp7
 70
     1
102
RTVSPropertyOp8
 70
     1
102
RTVSPropertyOp9
 70
     1
102
RTVSPropertyOp10
 70
     1
102
RTVSPropertyOp11
 70
     1
102
RTVSPropertyOp12
 70
     1
102
RTVSPropertyOp13
 70
     1
102
RTVSPropertyOp14
 70
     1
102
RTVSPropertyOp15
 70
     1
102
RTVSPropertyOp16
 70
     1
102
RTVSPropertyOp17
 70
     1
102
RTVSPropertyOp18
 70
     1
102
RTVSPropertyOp19
 70
     1
102
RTVSPropertyOp20
 70
     1
102
RTVSPropertyOp21
 70
     1
102
RTVSPropertyOp22
 70
     1
102
RTVSPropertyOp23
 70
     1
102
RTVSPropertyOp24
 70
     1
102
RTVSPropertyOp25
 70
     1
102
RTVSPropertyOp26
 70
     1
102
RTVSPropertyOp27
 70
     1
102
RTVSPropertyOp28
 70
     1
102
RTVSPropertyOp29
 70
     1
102
RTVSPropertyOp30
 70
     1
102
RTVSPropertyOp31
 70
     1
102
RTVSPropertyOp32
 70
     1
102
RTVSPropertyOp33
 70
     1
102
RTVSPropertyOp34
 70
     1
102
RTVSPropertyOp35
 70
     1
102
RTVSPropertyOp36
 70
     1
102
RTVSPropertyOp37
 70
     1
102
RTVSPropertyOp38
 70
     1
102
RTVSPropertyOp39
 70
     1
102
RTVSPropertyOp40
 70
     1
102
RTVSPropertyOp41
 70
     1
102
RTVSPropertyOp42
 70
     1
102
RTVSPropertyOp43
 70
     1
102
RTVSPropertyOp44
 70
     1
102
RTVSPropertyOp45
 70
     1
102
RTVSPropertyOp46
 70
     1
102
RTVSPropertyOp47
 70
     1
102
RTVSPropertyOp48
 70
     1
102
RTVSPropertyOp49
 70
     1
102
RTVSPropertyOp50
 70
     1
102
RTVSPropertyOp51
 70
     0
102
RTVSPropertyOp52
 70
     0
102
RTVSPropertyOp53
 70
     1
102
RTVSPropertyOp54
 70
     1
102
RTVSPropertyOp55
 70
     1
102
RTVSPropertyOp56
 70
     1
102
RTVSPropertyOp57
 70
     1
102
RTVSPropertyOp58
 70
     1
102
RTVSPropertyOp59
 70
     1
102
RTVSPropertyOp60
 70
     1
102
RTVSPropertyOp61
 70
     1
102
RTVSPropertyOp62
 70
     1
  0
XRECORD
  5
563
102
{ACAD_REACTORS
330
562
102
}
330
562
100
AcDbXrecord
280
     1
102
RTVSPost2010Prop28
280
     0
102
RTVSPost2010PropOp28
 70
     1
102
RTVSPost2010Prop29
280
     1
102
RTVSPost2010PropOp29
 70
     1
102
RTVSPost2010Prop30
280
     1
102
RTVSPost2010PropOp30
 70
     1
102
RTVSPost2010Prop31
280
     0
102
RTVSPost2010PropOp31
 70
     1
102
RTVSPost2010Prop32
280
     0
102
RTVSPost2010PropOp32
 70
     1
102
RTVSPost2010Prop33
280
     0
102
RTVSPost2010PropOp33
 70
     1
102
RTVSPost2010Prop34
280
     0
102
RTVSPost2010PropOp34
 70
     1
102
RTVSPost2010Prop35
280
     0
102
RTVSPost2010PropOp35
 70
     1
102
RTVSPost2010Prop36
280
     0
102
RTVSPost2010PropOp36
 70
     1
102
RTVSPost2010Prop37
 90
       50
102
RTVSPost2010PropOp37
 70
     0
102
RTVSPost2010Prop38
140
0.0
102
RTVSPost2010PropOp38
 70
     0
102
RTVSPost2010Prop39
140
1.0
102
RTVSPost2010PropOp39
 70
     0
102
RTVSPost2010Prop40
 90
        0
102
RTVSPost2010PropOp40
 70
     0
102
RTVSPost2010Prop41ColorIndex
 90
       18
102
RTVSPost2010Prop41ColorRGB
 90
        0
102
RTVSPost2010PropOp41
 70
     0
102
RTVSPost2010Prop42
 90
       50
102
RTVSPost2010PropOp42
 70
     0
102
RTVSPost2010Prop43
 90
        3
102
RTVSPost2010PropOp43
 70
     0
102
RTVSPost2010Prop44ColorIndex
 90
        5
102
RTVSPost2010Prop44ColorRGB
 90
      255
102
RTVSPost2010PropOp44
 70
     0
102
RTVSPost2010Prop45
280
     0
102
RTVSPost2010PropOp45
 70
     1
102
RTVSPost2010Prop46
 90
       50
102
RTVSPost2010PropOp46
 70
     0
102
RTVSPost2010Prop47
 90
       50
102
RTVSPost2010PropOp47
 70
     0
102
RTVSPost2010Prop48
 90
       50
102
RTVSPost2010PropOp48
 70
     0
102
RTVSPost2010Prop49
280
     0
102
RTVSPost2010PropOp49
 70
     1
102
RTVSPost2010Prop50
 90
       50
102
RTVSPost2010PropOp50
 70
     0
102
RTVSPost2010Prop51ColorIndex
 90
      256
102
RTVSPost2010Prop51ColorRGB
 90
-16777216
102
RTVSPost2010PropOp51
 70
     0
102
RTVSPost2010Prop52
140
1.0
102
RTVSPost2010PropOp52
 70
     0
102
RTVSPost2010Prop53
 90
        2
102
RTVSPost2010PropOp53
 70
     0
102
RTVSPost2010Prop54
  1
strokes_ogs.tif
102
RTVSPost2010PropOp54
 70
     0
102
RTVSPost2010Prop55
280
     0
102
RTVSPost2010PropOp55
 70
     1
102
RTVSPost2010Prop56
140
1.0
102
RTVSPost2010PropOp56
 70
     0
102
RTVSPost2010Prop57
140
1.0
102
RTVSPost2010PropOp57
 70
     0
102
RTVSPropertyOp0
 70
     0
102
RTVSPropertyOp1
 70
     0
102
RTVSPropertyOp2
 70
     0
102
RTVSPropertyOp3
 70
     0
102
RTVSPropertyOp4
 70
     0
102
RTVSPropertyOp5
 70
     0
102
RTVSPropertyOp6
 70
     0
102
RTVSPropertyOp7
 70
     0
102
RTVSPropertyOp8
 70
     0
102
RTVSPropertyOp9
 70
     0
102
RTVSPropertyOp10
 70
     0
102
RTVSPropertyOp11
 70
     0
102
RTVSPropertyOp12
 70
     0
102
RTVSPropertyOp13
 70
     0
102
RTVSPropertyOp14
 70
     2
102
RTVSPropertyOp15
 70
     0
102
RTVSPropertyOp16
 70
     0
102
RTVSPropertyOp17
 70
     0
102
RTVSPropertyOp18
 70
     0
102
RTVSPropertyOp19
 70
     0
102
RTVSPropertyOp20
 70
     0
102
RTVSPropertyOp21
 70
     0
102
RTVSPropertyOp22
 70
     0
102
RTVSPropertyOp23
 70
     0
102
RTVSPropertyOp24
 70
     0
102
RTVSPropertyOp25
 70
     0
102
RTVSPropertyOp26
 70
     0
102
RTVSPropertyOp27
 70
     0
102
RTVSPropertyOp28
 70
     1
102
RTVSPropertyOp29
 70
     1
102
RTVSPropertyOp30
 70
     1
102
RTVSPropertyOp31
 70
     1
102
RTVSPropertyOp32
 70
     1
102
RTVSPropertyOp33
 70
     1
102
RTVSPropertyOp34
 70
     1
102
RTVSPropertyOp35
 70
     1
102
RTVSPropertyOp36
 70
     1
102
RTVSPropertyOp37
 70
     0
102
RTVSPropertyOp38
 70
     0
102
RTVSPropertyOp39
 70
     0
102
RTVSPropertyOp40
 70
     0
102
RTVSPropertyOp41
 70
     0
102
RTVSPropertyOp42
 70
     0
102
RTVSPropertyOp43
 70
     0
102
RTVSPropertyOp44
 70
     0
102
RTVSPropertyOp45
 70
     1
102
RTVSPropertyOp46
 70
     0
102
RTVSPropertyOp47
 70
     0
102
RTVSPropertyOp48
 70
     0
102
RTVSPropertyOp49
 70
     1
102
RTVSPropertyOp50
 70
     0
102
RTVSPropertyOp51
 70
     0
102
RTVSPropertyOp52
 70
     0
102
RTVSPropertyOp53
 70
     0
102
RTVSPropertyOp54
 70
     0
102
RTVSPropertyOp55
 70
     1
102
RTVSPropertyOp56
 70
     0
102
RTVSPropertyOp57
 70
     0
102
RTVSPropertyOp58
 70
     0
102
RTVSPropertyOp59
 70
     0
102
RTVSPropertyOp60
 70
     0
102
RTVSPropertyOp61
 70
     0
102
RTVSPropertyOp62
 70
     0
  0
XRECORD
  5
553
102
{ACAD_REACTORS
330
552
102
}
330
552
100
AcDbXrecord
280
     1
102
RTVSPost2010Prop28
280
     0
102
RTVSPost2010PropOp28
 70
     1
102
RTVSPost2010Prop29
280
     1
102
RTVSPost2010PropOp29
 70
     1
102
RTVSPost2010Prop30
280
     1
102
RTVSPost2010PropOp30
 70
     1
102
RTVSPost2010Prop31
280
     0
102
RTVSPost2010PropOp31
 70
     1
102
RTVSPost2010Prop32
280
     0
102
RTVSPost2010PropOp32
 70
     1
102
RTVSPost2010Prop33
280
     0
102
RTVSPost2010PropOp33
 70
     1
102
RTVSPost2010Prop34
280
     0
102
RTVSPost2010PropOp34
 70
     1
102
RTVSPost2010Prop35
280
     0
102
RTVSPost2010PropOp35
 70
     1
102
RTVSPost2010Prop36
280
     0
102
RTVSPost2010PropOp36
 70
     1
102
RTVSPost2010Prop37
 90
       50
102
RTVSPost2010PropOp37
 70
     1
102
RTVSPost2010Prop38
140
0.0
102
RTVSPost2010PropOp38
 70
     1
102
RTVSPost2010Prop39
140
1.0
102
RTVSPost2010PropOp39
 70
     1
102
RTVSPost2010Prop40
 90
        0
102
RTVSPost2010PropOp40
 70
     1
102
RTVSPost2010Prop41ColorIndex
 90
       18
102
RTVSPost2010Prop41ColorRGB
 90
        0
102
RTVSPost2010PropOp41
 70
     1
102
RTVSPost2010Prop42
 90
       50
102
RTVSPost2010PropOp42
 70
     1
102
RTVSPost2010Prop43
 90
        3
102
RTVSPost2010PropOp43
 70
     1
102
RTVSPost2010Prop44ColorIndex
 90
        5
102
RTVSPost2010Prop44ColorRGB
 90
      255
102
RTVSPost2010PropOp44
 70
     1
102
RTVSPost2010Prop45
280
     0
102
RTVSPost2010PropOp45
 70
     1
102
RTVSPost2010Prop46
 90
       50
102
RTVSPost2010PropOp46
 70
     1
102
RTVSPost2010Prop47
 90
       50
102
RTVSPost2010PropOp47
 70
     1
102
RTVSPost2010Prop48
 90
       50
102
RTVSPost2010PropOp48
 70
     1
102
RTVSPost2010Prop49
280
     0
102
RTVSPost2010PropOp49
 70
     1
102
RTVSPost2010Prop50
 90
       50
102
RTVSPost2010PropOp50
 70
     1
102
RTVSPost2010Prop51ColorIndex
 90
      256
102
RTVSPost2010Prop51ColorRGB
 90
-16777216
102
RTVSPost2010PropOp51
 70
     0
102
RTVSPost2010Prop52
140
1.0
102
RTVSPost2010PropOp52
 70
     0
102
RTVSPost2010Prop53
 90
        2
102
RTVSPost2010PropOp53
 70
     1
102
RTVSPost2010Prop54
  1
strokes_ogs.tif
102
RTVSPost2010PropOp54
 70
     1
102
RTVSPost2010Prop55
280
     0
102
RTVSPost2010PropOp55
 70
     1
102
RTVSPost2010Prop56
140
1.0
102
RTVSPost2010PropOp56
 70
     1
102
RTVSPost2010Prop57
140
1.0
102
RTVSPost2010PropOp57
 70
     1
102
RTVSPropertyOp0
 70
     1
102
RTVSPropertyOp1
 70
     1
102
RTVSPropertyOp2
 70
     1
102
RTVSPropertyOp3
 70
     1
102
RTVSPropertyOp4
 70
     1
102
RTVSPropertyOp5
 70
     1
102
RTVSPropertyOp6
 70
     1
102
RTVSPropertyOp7
 70
     1
102
RTVSPropertyOp8
 70
     1
102
RTVSPropertyOp9
 70
     1
102
RTVSPropertyOp10
 70
     1
102
RTVSPropertyOp11
 70
     1
102
RTVSPropertyOp12
 70
     1
102
RTVSPropertyOp13
 70
     1
102
RTVSPropertyOp14
 70
     1
102
RTVSPropertyOp15
 70
     1
102
RTVSPropertyOp16
 70
     1
102
RTVSPropertyOp17
 70
     1
102
RTVSPropertyOp18
 70
     1
102
RTVSPropertyOp19
 70
     1
102
RTVSPropertyOp20
 70
     1
102
RTVSPropertyOp21
 70
     1
102
RTVSPropertyOp22
 70
     1
102
RTVSPropertyOp23
 70
     1
102
RTVSPropertyOp24
 70
     1
102
RTVSPropertyOp25
 70
     1
102
RTVSPropertyOp26
 70
     1
102
RTVSPropertyOp27
 70
     1
102
RTVSPropertyOp28
 70
     1
102
RTVSPropertyOp29
 70
     1
102
RTVSPropertyOp30
 70
     1
102
RTVSPropertyOp31
 70
     1
102
RTVSPropertyOp32
 70
     1
102
RTVSPropertyOp33
 70
     1
102
RTVSPropertyOp34
 70
     1
102
RTVSPropertyOp35
 70
     1
102
RTVSPropertyOp36
 70
     1
102
RTVSPropertyOp37
 70
     1
102
RTVSPropertyOp38
 70
     1
102
RTVSPropertyOp39
 70
     1
102
RTVSPropertyOp40
 70
     1
102
RTVSPropertyOp41
 70
     1
102
RTVSPropertyOp42
 70
     1
102
RTVSPropertyOp43
 70
     1
102
RTVSPropertyOp44
 70
     1
102
RTVSPropertyOp45
 70
     1
102
RTVSPropertyOp46
 70
     1
102
RTVSPropertyOp47
 70
     1
102
RTVSPropertyOp48
 70
     1
102
RTVSPropertyOp49
 70
     1
102
RTVSPropertyOp50
 70
     1
102
RTVSPropertyOp51
 70
     0
102
RTVSPropertyOp52
 70
     0
102
RTVSPropertyOp53
 70
     1
102
RTVSPropertyOp54
 70
     1
102
RTVSPropertyOp55
 70
     1
102
RTVSPropertyOp56
 70
     1
102
RTVSPropertyOp57
 70
     1
102
RTVSPropertyOp58
 70
     1
102
RTVSPropertyOp59
 70
     1
102
RTVSPropertyOp60
 70
     1
102
RTVSPropertyOp61
 70
     1
102
RTVSPropertyOp62
 70
     1
  0
XRECORD
  5
565
102
{ACAD_REACTORS
330
564
102
}
330
564
100
AcDbXrecord
280
     1
102
RTVSPost2010Prop28
280
     0
102
RTVSPost2010PropOp28
 70
     1
102
RTVSPost2010Prop29
280
     1
102
RTVSPost2010PropOp29
 70
     1
102
RTVSPost2010Prop30
280
     1
102
RTVSPost2010PropOp30
 70
     1
102
RTVSPost2010Prop31
280
     0
102
RTVSPost2010PropOp31
 70
     1
102
RTVSPost2010Prop32
280
     0
102
RTVSPost2010PropOp32
 70
     1
102
RTVSPost2010Prop33
280
     0
102
RTVSPost2010PropOp33
 70
     1
102
RTVSPost2010Prop34
280
     0
102
RTVSPost2010PropOp34
 70
     1
102
RTVSPost2010Prop35
280
     0
102
RTVSPost2010PropOp35
 70
     1
102
RTVSPost2010Prop36
280
     0
102
RTVSPost2010PropOp36
 70
     1
102
RTVSPost2010Prop37
 90
       50
102
RTVSPost2010PropOp37
 70
     0
102
RTVSPost2010Prop38
140
0.0
102
RTVSPost2010PropOp38
 70
     0
102
RTVSPost2010Prop39
140
1.0
102
RTVSPost2010PropOp39
 70
     0
102
RTVSPost2010Prop40
 90
        0
102
RTVSPost2010PropOp40
 70
     0
102
RTVSPost2010Prop41ColorIndex
 90
       18
102
RTVSPost2010Prop41ColorRGB
 90
        0
102
RTVSPost2010PropOp41
 70
     0
102
RTVSPost2010Prop42
 90
       50
102
RTVSPost2010PropOp42
 70
     0
102
RTVSPost2010Prop43
 90
        3
102
RTVSPost2010PropOp43
 70
     0
102
RTVSPost2010Prop44ColorIndex
 90
        5
102
RTVSPost2010Prop44ColorRGB
 90
      255
102
RTVSPost2010PropOp44
 70
     0
102
RTVSPost2010Prop45
280
     0
102
RTVSPost2010PropOp45
 70
     1
102
RTVSPost2010Prop46
 90
       50
102
RTVSPost2010PropOp46
 70
     0
102
RTVSPost2010Prop47
 90
       50
102
RTVSPost2010PropOp47
 70
     0
102
RTVSPost2010Prop48
 90
       50
102
RTVSPost2010PropOp48
 70
     0
102
RTVSPost2010Prop49
280
     0
102
RTVSPost2010PropOp49
 70
     1
102
RTVSPost2010Prop50
 90
       50
102
RTVSPost2010PropOp50
 70
     0
102
RTVSPost2010Prop51ColorIndex
 90
      256
102
RTVSPost2010Prop51ColorRGB
 90
-16777216
102
RTVSPost2010PropOp51
 70
     0
102
RTVSPost2010Prop52
140
1.0
102
RTVSPost2010PropOp52
 70
     0
102
RTVSPost2010Prop53
 90
        2
102
RTVSPost2010PropOp53
 70
     0
102
RTVSPost2010Prop54
  1
strokes_ogs.tif
102
RTVSPost2010PropOp54
 70
     0
102
RTVSPost2010Prop55
280
     0
102
RTVSPost2010PropOp55
 70
     1
102
RTVSPost2010Prop56
140
1.0
102
RTVSPost2010PropOp56
 70
     0
102
RTVSPost2010Prop57
140
1.0
102
RTVSPost2010PropOp57
 70
     0
102
RTVSPropertyOp0
 70
     0
102
RTVSPropertyOp1
 70
     0
102
RTVSPropertyOp2
 70
     0
102
RTVSPropertyOp3
 70
     0
102
RTVSPropertyOp4
 70
     0
102
RTVSPropertyOp5
 70
     0
102
RTVSPropertyOp6
 70
     0
102
RTVSPropertyOp7
 70
     0
102
RTVSPropertyOp8
 70
     0
102
RTVSPropertyOp9
 70
     0
102
RTVSPropertyOp10
 70
     0
102
RTVSPropertyOp11
 70
     0
102
RTVSPropertyOp12
 70
     0
102
RTVSPropertyOp13
 70
     0
102
RTVSPropertyOp14
 70
     2
102
RTVSPropertyOp15
 70
     0
102
RTVSPropertyOp16
 70
     0
102
RTVSPropertyOp17
 70
     0
102
RTVSPropertyOp18
 70
     0
102
RTVSPropertyOp19
 70
     0
102
RTVSPropertyOp20
 70
     0
102
RTVSPropertyOp21
 70
     0
102
RTVSPropertyOp22
 70
     0
102
RTVSPropertyOp23
 70
     0
102
RTVSPropertyOp24
 70
     0
102
RTVSPropertyOp25
 70
     0
102
RTVSPropertyOp26
 70
     0
102
RTVSPropertyOp27
 70
     0
102
RTVSPropertyOp28
 70
     1
102
RTVSPropertyOp29
 70
     1
102
RTVSPropertyOp30
 70
     1
102
RTVSPropertyOp31
 70
     1
102
RTVSPropertyOp32
 70
     1
102
RTVSPropertyOp33
 70
     1
102
RTVSPropertyOp34
 70
     1
102
RTVSPropertyOp35
 70
     1
102
RTVSPropertyOp36
 70
     1
102
RTVSPropertyOp37
 70
     0
102
RTVSPropertyOp38
 70
     0
102
RTVSPropertyOp39
 70
     0
102
RTVSPropertyOp40
 70
     0
102
RTVSPropertyOp41
 70
     0
102
RTVSPropertyOp42
 70
     0
102
RTVSPropertyOp43
 70
     0
102
RTVSPropertyOp44
 70
     0
102
RTVSPropertyOp45
 70
     1
102
RTVSPropertyOp46
 70
     0
102
RTVSPropertyOp47
 70
     0
102
RTVSPropertyOp48
 70
     0
102
RTVSPropertyOp49
 70
     1
102
RTVSPropertyOp50
 70
     0
102
RTVSPropertyOp51
 70
     0
102
RTVSPropertyOp52
 70
     0
102
RTVSPropertyOp53
 70
     0
102
RTVSPropertyOp54
 70
     0
102
RTVSPropertyOp55
 70
     1
102
RTVSPropertyOp56
 70
     0
102
RTVSPropertyOp57
 70
     0
102
RTVSPropertyOp58
 70
     0
102
RTVSPropertyOp59
 70
     0
102
RTVSPropertyOp60
 70
     0
102
RTVSPropertyOp61
 70
     0
102
RTVSPropertyOp62
 70
     0
  0
XRECORD
  5
54B
102
{ACAD_REACTORS
330
54A
102
}
330
54A
100
AcDbXrecord
280
     1
102
RTVSPost2010Prop28
280
     0
102
RTVSPost2010PropOp28
 70
     1
102
RTVSPost2010Prop29
280
     1
102
RTVSPost2010PropOp29
 70
     1
102
RTVSPost2010Prop30
280
     1
102
RTVSPost2010PropOp30
 70
     1
102
RTVSPost2010Prop31
280
     0
102
RTVSPost2010PropOp31
 70
     1
102
RTVSPost2010Prop32
280
     0
102
RTVSPost2010PropOp32
 70
     1
102
RTVSPost2010Prop33
280
     0
102
RTVSPost2010PropOp33
 70
     1
102
RTVSPost2010Prop34
280
     0
102
RTVSPost2010PropOp34
 70
     1
102
RTVSPost2010Prop35
280
     0
102
RTVSPost2010PropOp35
 70
     1
102
RTVSPost2010Prop36
280
     0
102
RTVSPost2010PropOp36
 70
     1
102
RTVSPost2010Prop37
 90
       50
102
RTVSPost2010PropOp37
 70
     1
102
RTVSPost2010Prop38
140
0.0
102
RTVSPost2010PropOp38
 70
     1
102
RTVSPost2010Prop39
140
1.0
102
RTVSPost2010PropOp39
 70
     1
102
RTVSPost2010Prop40
 90
        0
102
RTVSPost2010PropOp40
 70
     1
102
RTVSPost2010Prop41ColorIndex
 90
       18
102
RTVSPost2010Prop41ColorRGB
 90
        0
102
RTVSPost2010PropOp41
 70
     1
102
RTVSPost2010Prop42
 90
       50
102
RTVSPost2010PropOp42
 70
     1
102
RTVSPost2010Prop43
 90
        3
102
RTVSPost2010PropOp43
 70
     1
102
RTVSPost2010Prop44ColorIndex
 90
        5
102
RTVSPost2010Prop44ColorRGB
 90
      255
102
RTVSPost2010PropOp44
 70
     1
102
RTVSPost2010Prop45
280
     0
102
RTVSPost2010PropOp45
 70
     1
102
RTVSPost2010Prop46
 90
       50
102
RTVSPost2010PropOp46
 70
     1
102
RTVSPost2010Prop47
 90
       50
102
RTVSPost2010PropOp47
 70
     1
102
RTVSPost2010Prop48
 90
       50
102
RTVSPost2010PropOp48
 70
     1
102
RTVSPost2010Prop49
280
     0
102
RTVSPost2010PropOp49
 70
     1
102
RTVSPost2010Prop50
 90
       50
102
RTVSPost2010PropOp50
 70
     1
102
RTVSPost2010Prop51ColorIndex
 90
      256
102
RTVSPost2010Prop51ColorRGB
 90
-16777216
102
RTVSPost2010PropOp51
 70
     0
102
RTVSPost2010Prop52
140
1.0
102
RTVSPost2010PropOp52
 70
     0
102
RTVSPost2010Prop53
 90
        2
102
RTVSPost2010PropOp53
 70
     1
102
RTVSPost2010Prop54
  1
strokes_ogs.tif
102
RTVSPost2010PropOp54
 70
     1
102
RTVSPost2010Prop55
280
     0
102
RTVSPost2010PropOp55
 70
     1
102
RTVSPost2010Prop56
140
1.0
102
RTVSPost2010PropOp56
 70
     1
102
RTVSPost2010Prop57
140
1.0
102
RTVSPost2010PropOp57
 70
     1
102
RTVSPropertyOp0
 70
     1
102
RTVSPropertyOp1
 70
     1
102
RTVSPropertyOp2
 70
     1
102
RTVSPropertyOp3
 70
     1
102
RTVSPropertyOp4
 70
     1
102
RTVSPropertyOp5
 70
     1
102
RTVSPropertyOp6
 70
     1
102
RTVSPropertyOp7
 70
     1
102
RTVSPropertyOp8
 70
     1
102
RTVSPropertyOp9
 70
     1
102
RTVSPropertyOp10
 70
     1
102
RTVSPropertyOp11
 70
     1
102
RTVSPropertyOp12
 70
     1
102
RTVSPropertyOp13
 70
     1
102
RTVSPropertyOp14
 70
     1
102
RTVSPropertyOp15
 70
     1
102
RTVSPropertyOp16
 70
     1
102
RTVSPropertyOp17
 70
     1
102
RTVSPropertyOp18
 70
     1
102
RTVSPropertyOp19
 70
     1
102
RTVSPropertyOp20
 70
     1
102
RTVSPropertyOp21
 70
     1
102
RTVSPropertyOp22
 70
     1
102
RTVSPropertyOp23
 70
     1
102
RTVSPropertyOp24
 70
     1
102
RTVSPropertyOp25
 70
     1
102
RTVSPropertyOp26
 70
     1
102
RTVSPropertyOp27
 70
     1
102
RTVSPropertyOp28
 70
     1
102
RTVSPropertyOp29
 70
     1
102
RTVSPropertyOp30
 70
     1
102
RTVSPropertyOp31
 70
     1
102
RTVSPropertyOp32
 70
     1
102
RTVSPropertyOp33
 70
     1
102
RTVSPropertyOp34
 70
     1
102
RTVSPropertyOp35
 70
     1
102
RTVSPropertyOp36
 70
     1
102
RTVSPropertyOp37
 70
     1
102
RTVSPropertyOp38
 70
     1
102
RTVSPropertyOp39
 70
     1
102
RTVSPropertyOp40
 70
     1
102
RTVSPropertyOp41
 70
     1
102
RTVSPropertyOp42
 70
     1
102
RTVSPropertyOp43
 70
     1
102
RTVSPropertyOp44
 70
     1
102
RTVSPropertyOp45
 70
     1
102
RTVSPropertyOp46
 70
     1
102
RTVSPropertyOp47
 70
     1
102
RTVSPropertyOp48
 70
     1
102
RTVSPropertyOp49
 70
     1
102
RTVSPropertyOp50
 70
     1
102
RTVSPropertyOp51
 70
     0
102
RTVSPropertyOp52
 70
     0
102
RTVSPropertyOp53
 70
     1
102
RTVSPropertyOp54
 70
     1
102
RTVSPropertyOp55
 70
     1
102
RTVSPropertyOp56
 70
     1
102
RTVSPropertyOp57
 70
     1
102
RTVSPropertyOp58
 70
     1
102
RTVSPropertyOp59
 70
     1
102
RTVSPropertyOp60
 70
     1
102
RTVSPropertyOp61
 70
     1
102
RTVSPropertyOp62
 70
     1
  0
XRECORD
  5
561
102
{ACAD_REACTORS
330
560
102
}
330
560
100
AcDbXrecord
280
     1
102
RTVSPost2010Prop28
280
     0
102
RTVSPost2010PropOp28
 70
     1
102
RTVSPost2010Prop29
280
     1
102
RTVSPost2010PropOp29
 70
     1
102
RTVSPost2010Prop30
280
     1
102
RTVSPost2010PropOp30
 70
     1
102
RTVSPost2010Prop31
280
     0
102
RTVSPost2010PropOp31
 70
     1
102
RTVSPost2010Prop32
280
     0
102
RTVSPost2010PropOp32
 70
     1
102
RTVSPost2010Prop33
280
     0
102
RTVSPost2010PropOp33
 70
     1
102
RTVSPost2010Prop34
280
     0
102
RTVSPost2010PropOp34
 70
     1
102
RTVSPost2010Prop35
280
     0
102
RTVSPost2010PropOp35
 70
     1
102
RTVSPost2010Prop36
280
     0
102
RTVSPost2010PropOp36
 70
     1
102
RTVSPost2010Prop37
 90
       50
102
RTVSPost2010PropOp37
 70
     1
102
RTVSPost2010Prop38
140
0.0
102
RTVSPost2010PropOp38
 70
     1
102
RTVSPost2010Prop39
140
1.0
102
RTVSPost2010PropOp39
 70
     1
102
RTVSPost2010Prop40
 90
        0
102
RTVSPost2010PropOp40
 70
     1
102
RTVSPost2010Prop41ColorIndex
 90
       18
102
RTVSPost2010Prop41ColorRGB
 90
        0
102
RTVSPost2010PropOp41
 70
     1
102
RTVSPost2010Prop42
 90
       50
102
RTVSPost2010PropOp42
 70
     1
102
RTVSPost2010Prop43
 90
        3
102
RTVSPost2010PropOp43
 70
     1
102
RTVSPost2010Prop44ColorIndex
 90
        5
102
RTVSPost2010Prop44ColorRGB
 90
      255
102
RTVSPost2010PropOp44
 70
     1
102
RTVSPost2010Prop45
280
     0
102
RTVSPost2010PropOp45
 70
     1
102
RTVSPost2010Prop46
 90
       50
102
RTVSPost2010PropOp46
 70
     1
102
RTVSPost2010Prop47
 90
       50
102
RTVSPost2010PropOp47
 70
     1
102
RTVSPost2010Prop48
 90
       50
102
RTVSPost2010PropOp48
 70
     1
102
RTVSPost2010Prop49
280
     0
102
RTVSPost2010PropOp49
 70
     1
102
RTVSPost2010Prop50
 90
       50
102
RTVSPost2010PropOp50
 70
     1
102
RTVSPost2010Prop51ColorIndex
 90
      256
102
RTVSPost2010Prop51ColorRGB
 90
-16777216
102
RTVSPost2010PropOp51
 70
     0
102
RTVSPost2010Prop52
140
1.0
102
RTVSPost2010PropOp52
 70
     0
102
RTVSPost2010Prop53
 90
        2
102
RTVSPost2010PropOp53
 70
     1
102
RTVSPost2010Prop54
  1
strokes_ogs.tif
102
RTVSPost2010PropOp54
 70
     1
102
RTVSPost2010Prop55
280
     0
102
RTVSPost2010PropOp55
 70
     1
102
RTVSPost2010Prop56
140
1.0
102
RTVSPost2010PropOp56
 70
     1
102
RTVSPost2010Prop57
140
1.0
102
RTVSPost2010PropOp57
 70
     1
102
RTVSPropertyOp0
 70
     1
102
RTVSPropertyOp1
 70
     1
102
RTVSPropertyOp2
 70
     1
102
RTVSPropertyOp3
 70
     1
102
RTVSPropertyOp4
 70
     1
102
RTVSPropertyOp5
 70
     1
102
RTVSPropertyOp6
 70
     1
102
RTVSPropertyOp7
 70
     1
102
RTVSPropertyOp8
 70
     1
102
RTVSPropertyOp9
 70
     1
102
RTVSPropertyOp10
 70
     1
102
RTVSPropertyOp11
 70
     1
102
RTVSPropertyOp12
 70
     1
102
RTVSPropertyOp13
 70
     1
102
RTVSPropertyOp14
 70
     1
102
RTVSPropertyOp15
 70
     1
102
RTVSPropertyOp16
 70
     1
102
RTVSPropertyOp17
 70
     1
102
RTVSPropertyOp18
 70
     1
102
RTVSPropertyOp19
 70
     1
102
RTVSPropertyOp20
 70
     1
102
RTVSPropertyOp21
 70
     1
102
RTVSPropertyOp22
 70
     1
102
RTVSPropertyOp23
 70
     1
102
RTVSPropertyOp24
 70
     1
102
RTVSPropertyOp25
 70
     1
102
RTVSPropertyOp26
 70
     1
102
RTVSPropertyOp27
 70
     1
102
RTVSPropertyOp28
 70
     1
102
RTVSPropertyOp29
 70
     1
102
RTVSPropertyOp30
 70
     1
102
RTVSPropertyOp31
 70
     1
102
RTVSPropertyOp32
 70
     1
102
RTVSPropertyOp33
 70
     1
102
RTVSPropertyOp34
 70
     1
102
RTVSPropertyOp35
 70
     1
102
RTVSPropertyOp36
 70
     1
102
RTVSPropertyOp37
 70
     1
102
RTVSPropertyOp38
 70
     1
102
RTVSPropertyOp39
 70
     1
102
RTVSPropertyOp40
 70
     1
102
RTVSPropertyOp41
 70
     1
102
RTVSPropertyOp42
 70
     1
102
RTVSPropertyOp43
 70
     1
102
RTVSPropertyOp44
 70
     1
102
RTVSPropertyOp45
 70
     1
102
RTVSPropertyOp46
 70
     1
102
RTVSPropertyOp47
 70
     1
102
RTVSPropertyOp48
 70
     1
102
RTVSPropertyOp49
 70
     1
102
RTVSPropertyOp50
 70
     1
102
RTVSPropertyOp51
 70
     0
102
RTVSPropertyOp52
 70
     0
102
RTVSPropertyOp53
 70
     1
102
RTVSPropertyOp54
 70
     1
102
RTVSPropertyOp55
 70
     1
102
RTVSPropertyOp56
 70
     1
102
RTVSPropertyOp57
 70
     1
102
RTVSPropertyOp58
 70
     1
102
RTVSPropertyOp59
 70
     1
102
RTVSPropertyOp60
 70
     1
102
RTVSPropertyOp61
 70
     1
102
RTVSPropertyOp62
 70
     1
  0
XRECORD
  5
55F
102
{ACAD_REACTORS
330
55E
102
}
330
55E
100
AcDbXrecord
280
     1
102
RTVSPost2010Prop28
280
     0
102
RTVSPost2010PropOp28
 70
     1
102
RTVSPost2010Prop29
280
     1
102
RTVSPost2010PropOp29
 70
     1
102
RTVSPost2010Prop30
280
     1
102
RTVSPost2010PropOp30
 70
     1
102
RTVSPost2010Prop31
280
     0
102
RTVSPost2010PropOp31
 70
     1
102
RTVSPost2010Prop32
280
     0
102
RTVSPost2010PropOp32
 70
     1
102
RTVSPost2010Prop33
280
     0
102
RTVSPost2010PropOp33
 70
     1
102
RTVSPost2010Prop34
280
     0
102
RTVSPost2010PropOp34
 70
     1
102
RTVSPost2010Prop35
280
     0
102
RTVSPost2010PropOp35
 70
     1
102
RTVSPost2010Prop36
280
     0
102
RTVSPost2010PropOp36
 70
     1
102
RTVSPost2010Prop37
 90
       50
102
RTVSPost2010PropOp37
 70
     1
102
RTVSPost2010Prop38
140
0.0
102
RTVSPost2010PropOp38
 70
     1
102
RTVSPost2010Prop39
140
1.0
102
RTVSPost2010PropOp39
 70
     1
102
RTVSPost2010Prop40
 90
        0
102
RTVSPost2010PropOp40
 70
     1
102
RTVSPost2010Prop41ColorIndex
 90
       18
102
RTVSPost2010Prop41ColorRGB
 90
        0
102
RTVSPost2010PropOp41
 70
     1
102
RTVSPost2010Prop42
 90
       50
102
RTVSPost2010PropOp42
 70
     1
102
RTVSPost2010Prop43
 90
        3
102
RTVSPost2010PropOp43
 70
     1
102
RTVSPost2010Prop44ColorIndex
 90
        5
102
RTVSPost2010Prop44ColorRGB
 90
      255
102
RTVSPost2010PropOp44
 70
     1
102
RTVSPost2010Prop45
280
     0
102
RTVSPost2010PropOp45
 70
     1
102
RTVSPost2010Prop46
 90
       50
102
RTVSPost2010PropOp46
 70
     1
102
RTVSPost2010Prop47
 90
       50
102
RTVSPost2010PropOp47
 70
     1
102
RTVSPost2010Prop48
 90
       50
102
RTVSPost2010PropOp48
 70
     1
102
RTVSPost2010Prop49
280
     0
102
RTVSPost2010PropOp49
 70
     1
102
RTVSPost2010Prop50
 90
       50
102
RTVSPost2010PropOp50
 70
     1
102
RTVSPost2010Prop51ColorIndex
 90
      256
102
RTVSPost2010Prop51ColorRGB
 90
-16777216
102
RTVSPost2010PropOp51
 70
     0
102
RTVSPost2010Prop52
140
1.0
102
RTVSPost2010PropOp52
 70
     0
102
RTVSPost2010Prop53
 90
        2
102
RTVSPost2010PropOp53
 70
     1
102
RTVSPost2010Prop54
  1
strokes_ogs.tif
102
RTVSPost2010PropOp54
 70
     1
102
RTVSPost2010Prop55
280
     0
102
RTVSPost2010PropOp55
 70
     1
102
RTVSPost2010Prop56
140
1.0
102
RTVSPost2010PropOp56
 70
     1
102
RTVSPost2010Prop57
140
1.0
102
RTVSPost2010PropOp57
 70
     1
102
RTVSPropertyOp0
 70
     1
102
RTVSPropertyOp1
 70
     1
102
RTVSPropertyOp2
 70
     1
102
RTVSPropertyOp3
 70
     1
102
RTVSPropertyOp4
 70
     1
102
RTVSPropertyOp5
 70
     1
102
RTVSPropertyOp6
 70
     1
102
RTVSPropertyOp7
 70
     1
102
RTVSPropertyOp8
 70
     1
102
RTVSPropertyOp9
 70
     1
102
RTVSPropertyOp10
 70
     1
102
RTVSPropertyOp11
 70
     1
102
RTVSPropertyOp12
 70
     1
102
RTVSPropertyOp13
 70
     1
102
RTVSPropertyOp14
 70
     1
102
RTVSPropertyOp15
 70
     1
102
RTVSPropertyOp16
 70
     1
102
RTVSPropertyOp17
 70
     1
102
RTVSPropertyOp18
 70
     1
102
RTVSPropertyOp19
 70
     1
102
RTVSPropertyOp20
 70
     1
102
RTVSPropertyOp21
 70
     1
102
RTVSPropertyOp22
 70
     1
102
RTVSPropertyOp23
 70
     1
102
RTVSPropertyOp24
 70
     1
102
RTVSPropertyOp25
 70
     1
102
RTVSPropertyOp26
 70
     1
102
RTVSPropertyOp27
 70
     1
102
RTVSPropertyOp28
 70
     1
102
RTVSPropertyOp29
 70
     1
102
RTVSPropertyOp30
 70
     1
102
RTVSPropertyOp31
 70
     1
102
RTVSPropertyOp32
 70
     1
102
RTVSPropertyOp33
 70
     1
102
RTVSPropertyOp34
 70
     1
102
RTVSPropertyOp35
 70
     1
102
RTVSPropertyOp36
 70
     1
102
RTVSPropertyOp37
 70
     1
102
RTVSPropertyOp38
 70
     1
102
RTVSPropertyOp39
 70
     1
102
RTVSPropertyOp40
 70
     1
102
RTVSPropertyOp41
 70
     1
102
RTVSPropertyOp42
 70
     1
102
RTVSPropertyOp43
 70
     1
102
RTVSPropertyOp44
 70
     1
102
RTVSPropertyOp45
 70
     1
102
RTVSPropertyOp46
 70
     1
102
RTVSPropertyOp47
 70
     1
102
RTVSPropertyOp48
 70
     1
102
RTVSPropertyOp49
 70
     1
102
RTVSPropertyOp50
 70
     1
102
RTVSPropertyOp51
 70
     0
102
RTVSPropertyOp52
 70
     0
102
RTVSPropertyOp53
 70
     1
102
RTVSPropertyOp54
 70
     1
102
RTVSPropertyOp55
 70
     1
102
RTVSPropertyOp56
 70
     1
102
RTVSPropertyOp57
 70
     1
102
RTVSPropertyOp58
 70
     1
102
RTVSPropertyOp59
 70
     1
102
RTVSPropertyOp60
 70
     1
102
RTVSPropertyOp61
 70
     1
102
RTVSPropertyOp62
 70
     1
  0
XRECORD
  5
559
102
{ACAD_REACTORS
330
558
102
}
330
558
100
AcDbXrecord
280
     1
102
RTVSPost2010Prop28
280
     0
102
RTVSPost2010PropOp28
 70
     1
102
RTVSPost2010Prop29
280
     1
102
RTVSPost2010PropOp29
 70
     1
102
RTVSPost2010Prop30
280
     1
102
RTVSPost2010PropOp30
 70
     1
102
RTVSPost2010Prop31
280
     0
102
RTVSPost2010PropOp31
 70
     1
102
RTVSPost2010Prop32
280
     0
102
RTVSPost2010PropOp32
 70
     1
102
RTVSPost2010Prop33
280
     0
102
RTVSPost2010PropOp33
 70
     1
102
RTVSPost2010Prop34
280
     0
102
RTVSPost2010PropOp34
 70
     1
102
RTVSPost2010Prop35
280
     0
102
RTVSPost2010PropOp35
 70
     1
102
RTVSPost2010Prop36
280
     0
102
RTVSPost2010PropOp36
 70
     1
102
RTVSPost2010Prop37
 90
       50
102
RTVSPost2010PropOp37
 70
     1
102
RTVSPost2010Prop38
140
0.0
102
RTVSPost2010PropOp38
 70
     1
102
RTVSPost2010Prop39
140
1.0
102
RTVSPost2010PropOp39
 70
     1
102
RTVSPost2010Prop40
 90
        0
102
RTVSPost2010PropOp40
 70
     1
102
RTVSPost2010Prop41ColorIndex
 90
       18
102
RTVSPost2010Prop41ColorRGB
 90
        0
102
RTVSPost2010PropOp41
 70
     1
102
RTVSPost2010Prop42
 90
       50
102
RTVSPost2010PropOp42
 70
     1
102
RTVSPost2010Prop43
 90
        3
102
RTVSPost2010PropOp43
 70
     1
102
RTVSPost2010Prop44ColorIndex
 90
        5
102
RTVSPost2010Prop44ColorRGB
 90
      255
102
RTVSPost2010PropOp44
 70
     1
102
RTVSPost2010Prop45
280
     0
102
RTVSPost2010PropOp45
 70
     1
102
RTVSPost2010Prop46
 90
       50
102
RTVSPost2010PropOp46
 70
     1
102
RTVSPost2010Prop47
 90
       50
102
RTVSPost2010PropOp47
 70
     1
102
RTVSPost2010Prop48
 90
       50
102
RTVSPost2010PropOp48
 70
     1
102
RTVSPost2010Prop49
280
     0
102
RTVSPost2010PropOp49
 70
     1
102
RTVSPost2010Prop50
 90
       50
102
RTVSPost2010PropOp50
 70
     1
102
RTVSPost2010Prop51ColorIndex
 90
      256
102
RTVSPost2010Prop51ColorRGB
 90
-16777216
102
RTVSPost2010PropOp51
 70
     0
102
RTVSPost2010Prop52
140
1.0
102
RTVSPost2010PropOp52
 70
     0
102
RTVSPost2010Prop53
 90
        2
102
RTVSPost2010PropOp53
 70
     1
102
RTVSPost2010Prop54
  1
strokes_ogs.tif
102
RTVSPost2010PropOp54
 70
     1
102
RTVSPost2010Prop55
280
     0
102
RTVSPost2010PropOp55
 70
     1
102
RTVSPost2010Prop56
140
1.0
102
RTVSPost2010PropOp56
 70
     1
102
RTVSPost2010Prop57
140
1.0
102
RTVSPost2010PropOp57
 70
     1
102
RTVSPropertyOp0
 70
     1
102
RTVSPropertyOp1
 70
     1
102
RTVSPropertyOp2
 70
     1
102
RTVSPropertyOp3
 70
     1
102
RTVSPropertyOp4
 70
     1
102
RTVSPropertyOp5
 70
     1
102
RTVSPropertyOp6
 70
     1
102
RTVSPropertyOp7
 70
     1
102
RTVSPropertyOp8
 70
     1
102
RTVSPropertyOp9
 70
     1
102
RTVSPropertyOp10
 70
     1
102
RTVSPropertyOp11
 70
     1
102
RTVSPropertyOp12
 70
     1
102
RTVSPropertyOp13
 70
     1
102
RTVSPropertyOp14
 70
     1
102
RTVSPropertyOp15
 70
     1
102
RTVSPropertyOp16
 70
     1
102
RTVSPropertyOp17
 70
     1
102
RTVSPropertyOp18
 70
     1
102
RTVSPropertyOp19
 70
     1
102
RTVSPropertyOp20
 70
     1
102
RTVSPropertyOp21
 70
     1
102
RTVSPropertyOp22
 70
     1
102
RTVSPropertyOp23
 70
     1
102
RTVSPropertyOp24
 70
     1
102
RTVSPropertyOp25
 70
     1
102
RTVSPropertyOp26
 70
     1
102
RTVSPropertyOp27
 70
     1
102
RTVSPropertyOp28
 70
     1
102
RTVSPropertyOp29
 70
     1
102
RTVSPropertyOp30
 70
     1
102
RTVSPropertyOp31
 70
     1
102
RTVSPropertyOp32
 70
     1
102
RTVSPropertyOp33
 70
     1
102
RTVSPropertyOp34
 70
     1
102
RTVSPropertyOp35
 70
     1
102
RTVSPropertyOp36
 70
     1
102
RTVSPropertyOp37
 70
     1
102
RTVSPropertyOp38
 70
     1
102
RTVSPropertyOp39
 70
     1
102
RTVSPropertyOp40
 70
     1
102
RTVSPropertyOp41
 70
     1
102
RTVSPropertyOp42
 70
     1
102
RTVSPropertyOp43
 70
     1
102
RTVSPropertyOp44
 70
     1
102
RTVSPropertyOp45
 70
     1
102
RTVSPropertyOp46
 70
     1
102
RTVSPropertyOp47
 70
     1
102
RTVSPropertyOp48
 70
     1
102
RTVSPropertyOp49
 70
     1
102
RTVSPropertyOp50
 70
     1
102
RTVSPropertyOp51
 70
     0
102
RTVSPropertyOp52
 70
     0
102
RTVSPropertyOp53
 70
     1
102
RTVSPropertyOp54
 70
     1
102
RTVSPropertyOp55
 70
     1
102
RTVSPropertyOp56
 70
     1
102
RTVSPropertyOp57
 70
     1
102
RTVSPropertyOp58
 70
     1
102
RTVSPropertyOp59
 70
     1
102
RTVSPropertyOp60
 70
     1
102
RTVSPropertyOp61
 70
     1
102
RTVSPropertyOp62
 70
     1
  0
XRECORD
  5
55B
102
{ACAD_REACTORS
330
55A
102
}
330
55A
100
AcDbXrecord
280
     1
102
RTVSPost2010Prop28
280
     0
102
RTVSPost2010PropOp28
 70
     1
102
RTVSPost2010Prop29
280
     1
102
RTVSPost2010PropOp29
 70
     1
102
RTVSPost2010Prop30
280
     1
102
RTVSPost2010PropOp30
 70
     1
102
RTVSPost2010Prop31
280
     0
102
RTVSPost2010PropOp31
 70
     1
102
RTVSPost2010Prop32
280
     0
102
RTVSPost2010PropOp32
 70
     1
102
RTVSPost2010Prop33
280
     0
102
RTVSPost2010PropOp33
 70
     1
102
RTVSPost2010Prop34
280
     0
102
RTVSPost2010PropOp34
 70
     1
102
RTVSPost2010Prop35
280
     0
102
RTVSPost2010PropOp35
 70
     1
102
RTVSPost2010Prop36
280
     0
102
RTVSPost2010PropOp36
 70
     1
102
RTVSPost2010Prop37
 90
       50
102
RTVSPost2010PropOp37
 70
     1
102
RTVSPost2010Prop38
140
0.0
102
RTVSPost2010PropOp38
 70
     1
102
RTVSPost2010Prop39
140
1.0
102
RTVSPost2010PropOp39
 70
     1
102
RTVSPost2010Prop40
 90
        0
102
RTVSPost2010PropOp40
 70
     1
102
RTVSPost2010Prop41ColorIndex
 90
       18
102
RTVSPost2010Prop41ColorRGB
 90
        0
102
RTVSPost2010PropOp41
 70
     1
102
RTVSPost2010Prop42
 90
       50
102
RTVSPost2010PropOp42
 70
     1
102
RTVSPost2010Prop43
 90
        3
102
RTVSPost2010PropOp43
 70
     1
102
RTVSPost2010Prop44ColorIndex
 90
        5
102
RTVSPost2010Prop44ColorRGB
 90
      255
102
RTVSPost2010PropOp44
 70
     1
102
RTVSPost2010Prop45
280
     0
102
RTVSPost2010PropOp45
 70
     1
102
RTVSPost2010Prop46
 90
       50
102
RTVSPost2010PropOp46
 70
     1
102
RTVSPost2010Prop47
 90
       50
102
RTVSPost2010PropOp47
 70
     1
102
RTVSPost2010Prop48
 90
       50
102
RTVSPost2010PropOp48
 70
     1
102
RTVSPost2010Prop49
280
     0
102
RTVSPost2010PropOp49
 70
     1
102
RTVSPost2010Prop50
 90
       50
102
RTVSPost2010PropOp50
 70
     1
102
RTVSPost2010Prop51ColorIndex
 90
      256
102
RTVSPost2010Prop51ColorRGB
 90
-16777216
102
RTVSPost2010PropOp51
 70
     0
102
RTVSPost2010Prop52
140
1.0
102
RTVSPost2010PropOp52
 70
     0
102
RTVSPost2010Prop53
 90
        2
102
RTVSPost2010PropOp53
 70
     1
102
RTVSPost2010Prop54
  1
strokes_ogs.tif
102
RTVSPost2010PropOp54
 70
     1
102
RTVSPost2010Prop55
280
     0
102
RTVSPost2010PropOp55
 70
     1
102
RTVSPost2010Prop56
140
1.0
102
RTVSPost2010PropOp56
 70
     1
102
RTVSPost2010Prop57
140
1.0
102
RTVSPost2010PropOp57
 70
     1
102
RTVSPropertyOp0
 70
     1
102
RTVSPropertyOp1
 70
     1
102
RTVSPropertyOp2
 70
     1
102
RTVSPropertyOp3
 70
     1
102
RTVSPropertyOp4
 70
     1
102
RTVSPropertyOp5
 70
     1
102
RTVSPropertyOp6
 70
     1
102
RTVSPropertyOp7
 70
     1
102
RTVSPropertyOp8
 70
     1
102
RTVSPropertyOp9
 70
     1
102
RTVSPropertyOp10
 70
     1
102
RTVSPropertyOp11
 70
     1
102
RTVSPropertyOp12
 70
     1
102
RTVSPropertyOp13
 70
     1
102
RTVSPropertyOp14
 70
     1
102
RTVSPropertyOp15
 70
     1
102
RTVSPropertyOp16
 70
     1
102
RTVSPropertyOp17
 70
     1
102
RTVSPropertyOp18
 70
     1
102
RTVSPropertyOp19
 70
     1
102
RTVSPropertyOp20
 70
     1
102
RTVSPropertyOp21
 70
     1
102
RTVSPropertyOp22
 70
     1
102
RTVSPropertyOp23
 70
     1
102
RTVSPropertyOp24
 70
     1
102
RTVSPropertyOp25
 70
     1
102
RTVSPropertyOp26
 70
     1
102
RTVSPropertyOp27
 70
     1
102
RTVSPropertyOp28
 70
     1
102
RTVSPropertyOp29
 70
     1
102
RTVSPropertyOp30
 70
     1
102
RTVSPropertyOp31
 70
     1
102
RTVSPropertyOp32
 70
     1
102
RTVSPropertyOp33
 70
     1
102
RTVSPropertyOp34
 70
     1
102
RTVSPropertyOp35
 70
     1
102
RTVSPropertyOp36
 70
     1
102
RTVSPropertyOp37
 70
     1
102
RTVSPropertyOp38
 70
     1
102
RTVSPropertyOp39
 70
     1
102
RTVSPropertyOp40
 70
     1
102
RTVSPropertyOp41
 70
     1
102
RTVSPropertyOp42
 70
     1
102
RTVSPropertyOp43
 70
     1
102
RTVSPropertyOp44
 70
     1
102
RTVSPropertyOp45
 70
     1
102
RTVSPropertyOp46
 70
     1
102
RTVSPropertyOp47
 70
     1
102
RTVSPropertyOp48
 70
     1
102
RTVSPropertyOp49
 70
     1
102
RTVSPropertyOp50
 70
     1
102
RTVSPropertyOp51
 70
     0
102
RTVSPropertyOp52
 70
     0
102
RTVSPropertyOp53
 70
     1
102
RTVSPropertyOp54
 70
     1
102
RTVSPropertyOp55
 70
     1
102
RTVSPropertyOp56
 70
     1
102
RTVSPropertyOp57
 70
     1
102
RTVSPropertyOp58
 70
     1
102
RTVSPropertyOp59
 70
     1
102
RTVSPropertyOp60
 70
     1
102
RTVSPropertyOp61
 70
     1
102
RTVSPropertyOp62
 70
     1
  0
XRECORD
  5
551
102
{ACAD_REACTORS
330
550
102
}
330
550
100
AcDbXrecord
280
     1
102
RTVSPost2010Prop28
280
     0
102
RTVSPost2010PropOp28
 70
     1
102
RTVSPost2010Prop29
280
     1
102
RTVSPost2010PropOp29
 70
     1
102
RTVSPost2010Prop30
280
     1
102
RTVSPost2010PropOp30
 70
     1
102
RTVSPost2010Prop31
280
     0
102
RTVSPost2010PropOp31
 70
     1
102
RTVSPost2010Prop32
280
     0
102
RTVSPost2010PropOp32
 70
     1
102
RTVSPost2010Prop33
280
     0
102
RTVSPost2010PropOp33
 70
     1
102
RTVSPost2010Prop34
280
     0
102
RTVSPost2010PropOp34
 70
     1
102
RTVSPost2010Prop35
280
     0
102
RTVSPost2010PropOp35
 70
     1
102
RTVSPost2010Prop36
280
     0
102
RTVSPost2010PropOp36
 70
     1
102
RTVSPost2010Prop37
 90
       50
102
RTVSPost2010PropOp37
 70
     1
102
RTVSPost2010Prop38
140
0.0
102
RTVSPost2010PropOp38
 70
     1
102
RTVSPost2010Prop39
140
1.0
102
RTVSPost2010PropOp39
 70
     1
102
RTVSPost2010Prop40
 90
        0
102
RTVSPost2010PropOp40
 70
     1
102
RTVSPost2010Prop41ColorIndex
 90
       18
102
RTVSPost2010Prop41ColorRGB
 90
        0
102
RTVSPost2010PropOp41
 70
     1
102
RTVSPost2010Prop42
 90
       50
102
RTVSPost2010PropOp42
 70
     1
102
RTVSPost2010Prop43
 90
        3
102
RTVSPost2010PropOp43
 70
     1
102
RTVSPost2010Prop44ColorIndex
 90
        5
102
RTVSPost2010Prop44ColorRGB
 90
      255
102
RTVSPost2010PropOp44
 70
     1
102
RTVSPost2010Prop45
280
     0
102
RTVSPost2010PropOp45
 70
     1
102
RTVSPost2010Prop46
 90
       50
102
RTVSPost2010PropOp46
 70
     1
102
RTVSPost2010Prop47
 90
       50
102
RTVSPost2010PropOp47
 70
     1
102
RTVSPost2010Prop48
 90
       50
102
RTVSPost2010PropOp48
 70
     1
102
RTVSPost2010Prop49
280
     0
102
RTVSPost2010PropOp49
 70
     1
102
RTVSPost2010Prop50
 90
       50
102
RTVSPost2010PropOp50
 70
     1
102
RTVSPost2010Prop51ColorIndex
 90
      256
102
RTVSPost2010Prop51ColorRGB
 90
-16777216
102
RTVSPost2010PropOp51
 70
     0
102
RTVSPost2010Prop52
140
1.0
102
RTVSPost2010PropOp52
 70
     0
102
RTVSPost2010Prop53
 90
        2
102
RTVSPost2010PropOp53
 70
     1
102
RTVSPost2010Prop54
  1
strokes_ogs.tif
102
RTVSPost2010PropOp54
 70
     1
102
RTVSPost2010Prop55
280
     0
102
RTVSPost2010PropOp55
 70
     1
102
RTVSPost2010Prop56
140
1.0
102
RTVSPost2010PropOp56
 70
     1
102
RTVSPost2010Prop57
140
1.0
102
RTVSPost2010PropOp57
 70
     1
102
RTVSPropertyOp0
 70
     1
102
RTVSPropertyOp1
 70
     1
102
RTVSPropertyOp2
 70
     1
102
RTVSPropertyOp3
 70
     1
102
RTVSPropertyOp4
 70
     1
102
RTVSPropertyOp5
 70
     1
102
RTVSPropertyOp6
 70
     1
102
RTVSPropertyOp7
 70
     1
102
RTVSPropertyOp8
 70
     1
102
RTVSPropertyOp9
 70
     1
102
RTVSPropertyOp10
 70
     1
102
RTVSPropertyOp11
 70
     1
102
RTVSPropertyOp12
 70
     1
102
RTVSPropertyOp13
 70
     1
102
RTVSPropertyOp14
 70
     1
102
RTVSPropertyOp15
 70
     1
102
RTVSPropertyOp16
 70
     1
102
RTVSPropertyOp17
 70
     1
102
RTVSPropertyOp18
 70
     1
102
RTVSPropertyOp19
 70
     1
102
RTVSPropertyOp20
 70
     1
102
RTVSPropertyOp21
 70
     1
102
RTVSPropertyOp22
 70
     1
102
RTVSPropertyOp23
 70
     1
102
RTVSPropertyOp24
 70
     1
102
RTVSPropertyOp25
 70
     1
102
RTVSPropertyOp26
 70
     1
102
RTVSPropertyOp27
 70
     1
102
RTVSPropertyOp28
 70
     1
102
RTVSPropertyOp29
 70
     1
102
RTVSPropertyOp30
 70
     1
102
RTVSPropertyOp31
 70
     1
102
RTVSPropertyOp32
 70
     1
102
RTVSPropertyOp33
 70
     1
102
RTVSPropertyOp34
 70
     1
102
RTVSPropertyOp35
 70
     1
102
RTVSPropertyOp36
 70
     1
102
RTVSPropertyOp37
 70
     1
102
RTVSPropertyOp38
 70
     1
102
RTVSPropertyOp39
 70
     1
102
RTVSPropertyOp40
 70
     1
102
RTVSPropertyOp41
 70
     1
102
RTVSPropertyOp42
 70
     1
102
RTVSPropertyOp43
 70
     1
102
RTVSPropertyOp44
 70
     1
102
RTVSPropertyOp45
 70
     1
102
RTVSPropertyOp46
 70
     1
102
RTVSPropertyOp47
 70
     1
102
RTVSPropertyOp48
 70
     1
102
RTVSPropertyOp49
 70
     1
102
RTVSPropertyOp50
 70
     1
102
RTVSPropertyOp51
 70
     0
102
RTVSPropertyOp52
 70
     0
102
RTVSPropertyOp53
 70
     1
102
RTVSPropertyOp54
 70
     1
102
RTVSPropertyOp55
 70
     1
102
RTVSPropertyOp56
 70
     1
102
RTVSPropertyOp57
 70
     1
102
RTVSPropertyOp58
 70
     1
102
RTVSPropertyOp59
 70
     1
102
RTVSPropertyOp60
 70
     1
102
RTVSPropertyOp61
 70
     1
102
RTVSPropertyOp62
 70
     1
  0
XRECORD
  5
545
102
{ACAD_REACTORS
330
544
102
}
330
544
100
AcDbXrecord
280
     1
102
RTVSPost2010Prop28
280
     0
102
RTVSPost2010PropOp28
 70
     1
102
RTVSPost2010Prop29
280
     1
102
RTVSPost2010PropOp29
 70
     1
102
RTVSPost2010Prop30
280
     1
102
RTVSPost2010PropOp30
 70
     1
102
RTVSPost2010Prop31
280
     0
102
RTVSPost2010PropOp31
 70
     1
102
RTVSPost2010Prop32
280
     0
102
RTVSPost2010PropOp32
 70
     1
102
RTVSPost2010Prop33
280
     0
102
RTVSPost2010PropOp33
 70
     1
102
RTVSPost2010Prop34
280
     0
102
RTVSPost2010PropOp34
 70
     1
102
RTVSPost2010Prop35
280
     0
102
RTVSPost2010PropOp35
 70
     1
102
RTVSPost2010Prop36
280
     0
102
RTVSPost2010PropOp36
 70
     1
102
RTVSPost2010Prop37
 90
       50
102
RTVSPost2010PropOp37
 70
     1
102
RTVSPost2010Prop38
140
0.0
102
RTVSPost2010PropOp38
 70
     1
102
RTVSPost2010Prop39
140
1.0
102
RTVSPost2010PropOp39
 70
     1
102
RTVSPost2010Prop40
 90
        0
102
RTVSPost2010PropOp40
 70
     1
102
RTVSPost2010Prop41ColorIndex
 90
       18
102
RTVSPost2010Prop41ColorRGB
 90
        0
102
RTVSPost2010PropOp41
 70
     1
102
RTVSPost2010Prop42
 90
       50
102
RTVSPost2010PropOp42
 70
     1
102
RTVSPost2010Prop43
 90
        3
102
RTVSPost2010PropOp43
 70
     1
102
RTVSPost2010Prop44ColorIndex
 90
        5
102
RTVSPost2010Prop44ColorRGB
 90
      255
102
RTVSPost2010PropOp44
 70
     1
102
RTVSPost2010Prop45
280
     0
102
RTVSPost2010PropOp45
 70
     1
102
RTVSPost2010Prop46
 90
       50
102
RTVSPost2010PropOp46
 70
     1
102
RTVSPost2010Prop47
 90
       50
102
RTVSPost2010PropOp47
 70
     1
102
RTVSPost2010Prop48
 90
       50
102
RTVSPost2010PropOp48
 70
     1
102
RTVSPost2010Prop49
280
     0
102
RTVSPost2010PropOp49
 70
     1
102
RTVSPost2010Prop50
 90
       50
102
RTVSPost2010PropOp50
 70
     1
102
RTVSPost2010Prop51ColorIndex
 90
      256
102
RTVSPost2010Prop51ColorRGB
 90
-16777216
102
RTVSPost2010PropOp51
 70
     0
102
RTVSPost2010Prop52
140
1.0
102
RTVSPost2010PropOp52
 70
     0
102
RTVSPost2010Prop53
 90
        2
102
RTVSPost2010PropOp53
 70
     1
102
RTVSPost2010Prop54
  1
strokes_ogs.tif
102
RTVSPost2010PropOp54
 70
     1
102
RTVSPost2010Prop55
280
     0
102
RTVSPost2010PropOp55
 70
     1
102
RTVSPost2010Prop56
140
1.0
102
RTVSPost2010PropOp56
 70
     1
102
RTVSPost2010Prop57
140
1.0
102
RTVSPost2010PropOp57
 70
     1
102
RTVSPropertyOp0
 70
     1
102
RTVSPropertyOp1
 70
     1
102
RTVSPropertyOp2
 70
     1
102
RTVSPropertyOp3
 70
     1
102
RTVSPropertyOp4
 70
     1
102
RTVSPropertyOp5
 70
     1
102
RTVSPropertyOp6
 70
     1
102
RTVSPropertyOp7
 70
     1
102
RTVSPropertyOp8
 70
     1
102
RTVSPropertyOp9
 70
     1
102
RTVSPropertyOp10
 70
     1
102
RTVSPropertyOp11
 70
     1
102
RTVSPropertyOp12
 70
     1
102
RTVSPropertyOp13
 70
     1
102
RTVSPropertyOp14
 70
     1
102
RTVSPropertyOp15
 70
     1
102
RTVSPropertyOp16
 70
     1
102
RTVSPropertyOp17
 70
     1
102
RTVSPropertyOp18
 70
     1
102
RTVSPropertyOp19
 70
     1
102
RTVSPropertyOp20
 70
     1
102
RTVSPropertyOp21
 70
     1
102
RTVSPropertyOp22
 70
     1
102
RTVSPropertyOp23
 70
     1
102
RTVSPropertyOp24
 70
     1
102
RTVSPropertyOp25
 70
     1
102
RTVSPropertyOp26
 70
     1
102
RTVSPropertyOp27
 70
     1
102
RTVSPropertyOp28
 70
     1
102
RTVSPropertyOp29
 70
     1
102
RTVSPropertyOp30
 70
     1
102
RTVSPropertyOp31
 70
     1
102
RTVSPropertyOp32
 70
     1
102
RTVSPropertyOp33
 70
     1
102
RTVSPropertyOp34
 70
     1
102
RTVSPropertyOp35
 70
     1
102
RTVSPropertyOp36
 70
     1
102
RTVSPropertyOp37
 70
     1
102
RTVSPropertyOp38
 70
     1
102
RTVSPropertyOp39
 70
     1
102
RTVSPropertyOp40
 70
     1
102
RTVSPropertyOp41
 70
     1
102
RTVSPropertyOp42
 70
     1
102
RTVSPropertyOp43
 70
     1
102
RTVSPropertyOp44
 70
     1
102
RTVSPropertyOp45
 70
     1
102
RTVSPropertyOp46
 70
     1
102
RTVSPropertyOp47
 70
     1
102
RTVSPropertyOp48
 70
     1
102
RTVSPropertyOp49
 70
     1
102
RTVSPropertyOp50
 70
     1
102
RTVSPropertyOp51
 70
     0
102
RTVSPropertyOp52
 70
     0
102
RTVSPropertyOp53
 70
     1
102
RTVSPropertyOp54
 70
     1
102
RTVSPropertyOp55
 70
     1
102
RTVSPropertyOp56
 70
     1
102
RTVSPropertyOp57
 70
     1
102
RTVSPropertyOp58
 70
     1
102
RTVSPropertyOp59
 70
     1
102
RTVSPropertyOp60
 70
     1
102
RTVSPropertyOp61
 70
     1
102
RTVSPropertyOp62
 70
     1
  0
XRECORD
  5
55D
102
{ACAD_REACTORS
330
55C
102
}
330
55C
100
AcDbXrecord
280
     1
102
RTVSPost2010Prop28
280
     0
102
RTVSPost2010PropOp28
 70
     1
102
RTVSPost2010Prop29
280
     1
102
RTVSPost2010PropOp29
 70
     1
102
RTVSPost2010Prop30
280
     1
102
RTVSPost2010PropOp30
 70
     1
102
RTVSPost2010Prop31
280
     0
102
RTVSPost2010PropOp31
 70
     1
102
RTVSPost2010Prop32
280
     0
102
RTVSPost2010PropOp32
 70
     1
102
RTVSPost2010Prop33
280
     0
102
RTVSPost2010PropOp33
 70
     1
102
RTVSPost2010Prop34
280
     0
102
RTVSPost2010PropOp34
 70
     1
102
RTVSPost2010Prop35
280
     0
102
RTVSPost2010PropOp35
 70
     1
102
RTVSPost2010Prop36
280
     0
102
RTVSPost2010PropOp36
 70
     1
102
RTVSPost2010Prop37
 90
       50
102
RTVSPost2010PropOp37
 70
     1
102
RTVSPost2010Prop38
140
0.0
102
RTVSPost2010PropOp38
 70
     1
102
RTVSPost2010Prop39
140
1.0
102
RTVSPost2010PropOp39
 70
     1
102
RTVSPost2010Prop40
 90
        0
102
RTVSPost2010PropOp40
 70
     1
102
RTVSPost2010Prop41ColorIndex
 90
       18
102
RTVSPost2010Prop41ColorRGB
 90
        0
102
RTVSPost2010PropOp41
 70
     1
102
RTVSPost2010Prop42
 90
       50
102
RTVSPost2010PropOp42
 70
     1
102
RTVSPost2010Prop43
 90
        3
102
RTVSPost2010PropOp43
 70
     1
102
RTVSPost2010Prop44ColorIndex
 90
        5
102
RTVSPost2010Prop44ColorRGB
 90
      255
102
RTVSPost2010PropOp44
 70
     1
102
RTVSPost2010Prop45
280
     0
102
RTVSPost2010PropOp45
 70
     1
102
RTVSPost2010Prop46
 90
       50
102
RTVSPost2010PropOp46
 70
     1
102
RTVSPost2010Prop47
 90
       50
102
RTVSPost2010PropOp47
 70
     1
102
RTVSPost2010Prop48
 90
       50
102
RTVSPost2010PropOp48
 70
     1
102
RTVSPost2010Prop49
280
     0
102
RTVSPost2010PropOp49
 70
     1
102
RTVSPost2010Prop50
 90
       50
102
RTVSPost2010PropOp50
 70
     1
102
RTVSPost2010Prop51ColorIndex
 90
      256
102
RTVSPost2010Prop51ColorRGB
 90
-16777216
102
RTVSPost2010PropOp51
 70
     0
102
RTVSPost2010Prop52
140
1.0
102
RTVSPost2010PropOp52
 70
     0
102
RTVSPost2010Prop53
 90
        2
102
RTVSPost2010PropOp53
 70
     1
102
RTVSPost2010Prop54
  1
strokes_ogs.tif
102
RTVSPost2010PropOp54
 70
     1
102
RTVSPost2010Prop55
280
     0
102
RTVSPost2010PropOp55
 70
     1
102
RTVSPost2010Prop56
140
1.0
102
RTVSPost2010PropOp56
 70
     1
102
RTVSPost2010Prop57
140
1.0
102
RTVSPost2010PropOp57
 70
     1
102
RTVSPropertyOp0
 70
     1
102
RTVSPropertyOp1
 70
     1
102
RTVSPropertyOp2
 70
     1
102
RTVSPropertyOp3
 70
     1
102
RTVSPropertyOp4
 70
     1
102
RTVSPropertyOp5
 70
     1
102
RTVSPropertyOp6
 70
     1
102
RTVSPropertyOp7
 70
     1
102
RTVSPropertyOp8
 70
     1
102
RTVSPropertyOp9
 70
     1
102
RTVSPropertyOp10
 70
     1
102
RTVSPropertyOp11
 70
     1
102
RTVSPropertyOp12
 70
     1
102
RTVSPropertyOp13
 70
     1
102
RTVSPropertyOp14
 70
     1
102
RTVSPropertyOp15
 70
     1
102
RTVSPropertyOp16
 70
     1
102
RTVSPropertyOp17
 70
     1
102
RTVSPropertyOp18
 70
     1
102
RTVSPropertyOp19
 70
     1
102
RTVSPropertyOp20
 70
     1
102
RTVSPropertyOp21
 70
     1
102
RTVSPropertyOp22
 70
     1
102
RTVSPropertyOp23
 70
     1
102
RTVSPropertyOp24
 70
     1
102
RTVSPropertyOp25
 70
     1
102
RTVSPropertyOp26
 70
     1
102
RTVSPropertyOp27
 70
     1
102
RTVSPropertyOp28
 70
     1
102
RTVSPropertyOp29
 70
     1
102
RTVSPropertyOp30
 70
     1
102
RTVSPropertyOp31
 70
     1
102
RTVSPropertyOp32
 70
     1
102
RTVSPropertyOp33
 70
     1
102
RTVSPropertyOp34
 70
     1
102
RTVSPropertyOp35
 70
     1
102
RTVSPropertyOp36
 70
     1
102
RTVSPropertyOp37
 70
     1
102
RTVSPropertyOp38
 70
     1
102
RTVSPropertyOp39
 70
     1
102
RTVSPropertyOp40
 70
     1
102
RTVSPropertyOp41
 70
     1
102
RTVSPropertyOp42
 70
     1
102
RTVSPropertyOp43
 70
     1
102
RTVSPropertyOp44
 70
     1
102
RTVSPropertyOp45
 70
     1
102
RTVSPropertyOp46
 70
     1
102
RTVSPropertyOp47
 70
     1
102
RTVSPropertyOp48
 70
     1
102
RTVSPropertyOp49
 70
     1
102
RTVSPropertyOp50
 70
     1
102
RTVSPropertyOp51
 70
     0
102
RTVSPropertyOp52
 70
     0
102
RTVSPropertyOp53
 70
     1
102
RTVSPropertyOp54
 70
     1
102
RTVSPropertyOp55
 70
     1
102
RTVSPropertyOp56
 70
     1
102
RTVSPropertyOp57
 70
     1
102
RTVSPropertyOp58
 70
     1
102
RTVSPropertyOp59
 70
     1
102
RTVSPropertyOp60
 70
     1
102
RTVSPropertyOp61
 70
     1
102
RTVSPropertyOp62
 70
     1
  0
ENDSEC
  0
EOF
